ISO-10303-21;
HEADER;
FILE_DESCRIPTION (( 'STEP AP203' ),
    '1' );
FILE_NAME ('48f7.STEP',
    '2022-07-07T10:00:49',
    ( '' ),
    ( '' ),
    'SwSTEP 2.0',
    'SolidWorks 2019',
    '' );
FILE_SCHEMA (( 'CONFIG_CONTROL_DESIGN' ));
ENDSEC;

DATA;
#1 = ORIENTED_EDGE ( 'NONE', *, *, #257, .T. ) ;
#2 = DIRECTION ( 'NONE',  ( 1.000000000000000000, 0.000000000000000000, 0.000000000000000000 ) ) ;
#3 = ORIENTED_EDGE ( 'NONE', *, *, #280, .T. ) ;
#4 = AXIS2_PLACEMENT_3D ( 'NONE', #91, #117, #207 ) ;
#5 = ORIENTED_EDGE ( 'NONE', *, *, #121, .T. ) ;
#6 = EDGE_CURVE ( 'NONE', #260, #35, #130, .T. ) ;
#7 = ORIENTED_EDGE ( 'NONE', *, *, #176, .F. ) ;
#8 = CARTESIAN_POINT ( 'NONE',  ( 0.000000000000000000, 0.000000000000000000, 5.199999999999982414 ) ) ;
#9 = EDGE_LOOP ( 'NONE', ( #194, #5 ) ) ;
#10 = CIRCLE ( 'NONE', #66, 0.1999999999999996503 ) ;
#11 = SHAPE_DEFINITION_REPRESENTATION ( #259, #304 ) ;
#12 = ORIENTED_EDGE ( 'NONE', *, *, #121, .F. ) ;
#13 = ORIENTED_EDGE ( 'NONE', *, *, #257, .F. ) ;
#14 = DIRECTION ( 'NONE',  ( 1.000000000000000000, 0.000000000000000000, 0.000000000000000000 ) ) ;
#15 = AXIS2_PLACEMENT_3D ( 'NONE', #232, #161, #14 ) ;
#16 = ADVANCED_FACE ( 'NONE', ( #154 ), #136, .F. ) ;
#17 = CARTESIAN_POINT ( 'NONE',  ( -4.299999999999998934, 5.265981236333617484E-16, 4.999999999999991118 ) ) ;
#18 = DIRECTION ( 'NONE',  ( -0.000000000000000000, -0.000000000000000000, -1.000000000000000000 ) ) ;
#19 = CYLINDRICAL_SURFACE ( 'NONE', #31, 4.099999999999999645 ) ;
#20 = LOCAL_TIME ( 12, 0, 49.00000000000000000, #168 ) ;
#21 = LOCAL_TIME ( 12, 0, 49.00000000000000000, #239 ) ;
#22 = PERSON_AND_ORGANIZATION ( #244, #118 ) ;
#23 = ORIENTED_EDGE ( 'NONE', *, *, #6, .F. ) ;
#24 = CALENDAR_DATE ( 2022, 7, 7 ) ;
#25 = EDGE_CURVE ( 'NONE', #129, #220, #26, .T. ) ;
#26 = CIRCLE ( 'NONE', #112, 7.000000000000000000 ) ;
#27 =( NAMED_UNIT ( * ) PLANE_ANGLE_UNIT ( ) SI_UNIT ( $, .RADIAN. ) );
#28 = EDGE_LOOP ( 'NONE', ( #122, #216, #78, #71 ) ) ;
#29 = DATE_AND_TIME ( #24, #20 ) ;
#30 = EDGE_LOOP ( 'NONE', ( #23, #221, #1, #193 ) ) ;
#31 = AXIS2_PLACEMENT_3D ( 'NONE', #230, #18, #115 ) ;
#32 = VERTEX_POINT ( 'NONE', #245 ) ;
#33 = APPROVAL_PERSON_ORGANIZATION ( #22, #105, #215 ) ;
#34 = EDGE_CURVE ( 'NONE', #174, #220, #150, .T. ) ;
#35 = VERTEX_POINT ( 'NONE', #81 ) ;
#36 = CC_DESIGN_PERSON_AND_ORGANIZATION_ASSIGNMENT ( #76, #188, ( #285 ) ) ;
#37 = CARTESIAN_POINT ( 'NONE',  ( -7.000000000000000000, 0.000000000000000000, 5.000000000000000000 ) ) ;
#38 = CIRCLE ( 'NONE', #185, 4.299999999999998934 ) ;
#39 = ORIENTED_EDGE ( 'NONE', *, *, #280, .F. ) ;
#40 = CARTESIAN_POINT ( 'NONE',  ( 0.000000000000000000, 0.000000000000000000, 0.000000000000000000 ) ) ;
#41 = EDGE_CURVE ( 'NONE', #35, #177, #305, .T. ) ;
#42 = DIRECTION ( 'NONE',  ( 1.000000000000000000, 0.000000000000000000, 0.000000000000000000 ) ) ;
#43 = AXIS2_PLACEMENT_3D ( 'NONE', #214, #289, #2 ) ;
#44 = CARTESIAN_POINT ( 'NONE',  ( -7.000000000000000000, 0.000000000000000000, 0.000000000000000000 ) ) ;
#45 = DIRECTION ( 'NONE',  ( -0.000000000000000000, -0.000000000000000000, -1.000000000000000000 ) ) ;
#46 = APPROVAL ( #119, 'NEURÈENÝ' ) ;
#47 = CARTESIAN_POINT ( 'NONE',  ( 0.000000000000000000, 0.000000000000000000, 5.000000000000000000 ) ) ;
#48 = AXIS2_PLACEMENT_3D ( 'NONE', #8, #224, #293 ) ;
#49 = COORDINATED_UNIVERSAL_TIME_OFFSET ( 1, 0, .AHEAD. ) ;
#50 = ORIENTED_EDGE ( 'NONE', *, *, #34, .T. ) ;
#51 = CIRCLE ( 'NONE', #295, 0.1999999999999996503 ) ;
#52 = ORIENTED_EDGE ( 'NONE', *, *, #34, .F. ) ;
#53 = COORDINATED_UNIVERSAL_TIME_OFFSET ( 1, 0, .AHEAD. ) ;
#54 = ORIENTED_EDGE ( 'NONE', *, *, #63, .T. ) ;
#55 = PRODUCT_RELATED_PRODUCT_CATEGORY ( 'detail', '', ( #285 ) ) ;
#56 = EDGE_LOOP ( 'NONE', ( #7, #101, #153, #13 ) ) ;
#57 = FACE_OUTER_BOUND ( 'NONE', #264, .T. ) ;
#58 = ORIENTED_EDGE ( 'NONE', *, *, #176, .T. ) ;
#59 = CC_DESIGN_PERSON_AND_ORGANIZATION_ASSIGNMENT ( #192, #96, ( #72 ) ) ;
#60 = ORIENTED_EDGE ( 'NONE', *, *, #25, .F. ) ;
#61 = LOCAL_TIME ( 12, 0, 49.00000000000000000, #255 ) ;
#62 = DIRECTION ( 'NONE',  ( 0.000000000000000000, 0.000000000000000000, 1.000000000000000000 ) ) ;
#63 = EDGE_CURVE ( 'NONE', #35, #155, #10, .T. ) ;
#64 = DIRECTION ( 'NONE',  ( 1.000000000000000000, 0.000000000000000000, -0.000000000000000000 ) ) ;
#65 = CARTESIAN_POINT ( 'NONE',  ( -4.099999999999999645, 0.000000000000000000, 5.199999999999982414 ) ) ;
#66 = AXIS2_PLACEMENT_3D ( 'NONE', #243, #175, #106 ) ;
#67 = CC_DESIGN_APPROVAL ( #105, ( #72 ) ) ;
#68 = CARTESIAN_POINT ( 'NONE',  ( 4.099999999999999645, 5.021051876504147385E-16, 320.0000000000000000 ) ) ;
#69 = CARTESIAN_POINT ( 'NONE',  ( 7.000000000000000000, 8.572527594031473190E-16, 0.000000000000000000 ) ) ;
#70 = DATE_AND_TIME ( #282, #61 ) ;
#71 = ORIENTED_EDGE ( 'NONE', *, *, #63, .F. ) ;
#72 = PRODUCT_DEFINITION_FORMATION_WITH_SPECIFIED_SOURCE ( 'LIBOVOLNÝ', '', #285, .NOT_KNOWN. ) ;
#73 = PERSON_AND_ORGANIZATION ( #244, #118 ) ;
#74 = ADVANCED_FACE ( 'NONE', ( #57 ), #240, .T. ) ;
#75 = APPROVAL_STATUS ( 'not_yet_approved' ) ;
#76 = PERSON_AND_ORGANIZATION ( #244, #118 ) ;
#77 = CIRCLE ( 'NONE', #167, 4.099999999999999645 ) ;
#78 = ORIENTED_EDGE ( 'NONE', *, *, #79, .F. ) ;
#79 = EDGE_CURVE ( 'NONE', #155, #170, #38, .T. ) ;
#80 = CARTESIAN_POINT ( 'NONE',  ( 0.000000000000000000, 0.000000000000000000, 5.199999999999982414 ) ) ;
#81 = CARTESIAN_POINT ( 'NONE',  ( 4.099999999999999645, 5.021051876504147385E-16, 5.199999999999982414 ) ) ;
#82 = TOROIDAL_SURFACE ( 'NONE', #107, 4.299999999999998934, 0.2000000000000000111 ) ;
#83 = CC_DESIGN_PERSON_AND_ORGANIZATION_ASSIGNMENT ( #73, #237, ( #300 ) ) ;
#84 = DIRECTION ( 'NONE',  ( 1.000000000000000000, 0.000000000000000000, 0.000000000000000000 ) ) ;
#85 = DIRECTION ( 'NONE',  ( 0.000000000000000000, 0.000000000000000000, 1.000000000000000000 ) ) ;
#86 = DIRECTION ( 'NONE',  ( 0.000000000000000000, 0.000000000000000000, 1.000000000000000000 ) ) ;
#87 = FACE_OUTER_BOUND ( 'NONE', #56, .T. ) ;
#88 = AXIS2_PLACEMENT_3D ( 'NONE', #200, #269, #134 ) ;
#89 = CC_DESIGN_PERSON_AND_ORGANIZATION_ASSIGNMENT ( #307, #166, ( #171 ) ) ;
#90 = DIRECTION ( 'NONE',  ( -1.000000000000000000, 1.224646799147353454E-16, 0.000000000000000000 ) ) ;
#91 = CARTESIAN_POINT ( 'NONE',  ( 0.000000000000000000, 0.000000000000000000, 320.0000000000000000 ) ) ;
#92 = DIRECTION ( 'NONE',  ( -0.000000000000000000, -0.000000000000000000, -1.000000000000000000 ) ) ;
#93 = EDGE_CURVE ( 'NONE', #220, #129, #281, .T. ) ;
#94 = CARTESIAN_POINT ( 'NONE',  ( 0.000000000000000000, 0.000000000000000000, 5.199999999999982414 ) ) ;
#95 = SECURITY_CLASSIFICATION_LEVEL ( 'unclassified' ) ;
#96 = PERSON_AND_ORGANIZATION_ROLE ( 'creator' ) ;
#97 = ADVANCED_FACE ( 'NONE', ( #108 ), #82, .F. ) ;
#98 = CLOSED_SHELL ( 'NONE', ( #97, #149, #287, #123, #206, #132, #226, #74, #16 ) ) ;
#99 = APPROVAL_DATE_TIME ( #120, #105 ) ;
#100 = EDGE_LOOP ( 'NONE', ( #12, #3, #286, #52 ) ) ;
#101 = ORIENTED_EDGE ( 'NONE', *, *, #6, .T. ) ;
#102 = AXIS2_PLACEMENT_3D ( 'NONE', #160, #164, #110 ) ;
#103 = EDGE_LOOP ( 'NONE', ( #201, #128 ) ) ;
#104 = DIRECTION ( 'NONE',  ( -0.000000000000000000, -0.000000000000000000, -1.000000000000000000 ) ) ;
#105 = APPROVAL ( #143, 'NEURÈENÝ' ) ;
#106 = DIRECTION ( 'NONE',  ( 0.000000000000000000, 0.000000000000000000, -1.000000000000000000 ) ) ;
#107 = AXIS2_PLACEMENT_3D ( 'NONE', #296, #85, #179 ) ;
#108 = FACE_OUTER_BOUND ( 'NONE', #28, .T. ) ;
#109 = CARTESIAN_POINT ( 'NONE',  ( 0.000000000000000000, 0.000000000000000000, 0.000000000000000000 ) ) ;
#110 = DIRECTION ( 'NONE',  ( 1.000000000000000000, 0.000000000000000000, 0.000000000000000000 ) ) ;
#111 = FACE_OUTER_BOUND ( 'NONE', #256, .T. ) ;
#112 = AXIS2_PLACEMENT_3D ( 'NONE', #109, #180, #196 ) ;
#113 = CARTESIAN_POINT ( 'NONE',  ( -7.000000000000000000, 0.000000000000000000, 5.000000000000000000 ) ) ;
#114 = APPROVAL ( #75, 'NEURÈENÝ' ) ;
#115 = DIRECTION ( 'NONE',  ( -1.000000000000000000, 0.000000000000000000, 0.000000000000000000 ) ) ;
#116 = DESIGN_CONTEXT ( 'detailed design', #222, 'design' ) ;
#117 = DIRECTION ( 'NONE',  ( 0.000000000000000000, 0.000000000000000000, 1.000000000000000000 ) ) ;
#118 = ORGANIZATION ( 'NEURÈENÝ', 'NEURÈENÝ', '' ) ;
#119 = APPROVAL_STATUS ( 'not_yet_approved' ) ;
#120 = DATE_AND_TIME ( #187, #191 ) ;
#121 = EDGE_CURVE ( 'NONE', #212, #174, #218, .T. ) ;
#122 = ORIENTED_EDGE ( 'NONE', *, *, #213, .F. ) ;
#123 = ADVANCED_FACE ( 'NONE', ( #111 ), #234, .T. ) ;
#124 = DATE_TIME_ROLE ( 'classification_date' ) ;
#125 = CIRCLE ( 'NONE', #102, 4.099999999999999645 ) ;
#126 = DATE_TIME_ROLE ( 'creation_date' ) ;
#127 = DATE_AND_TIME ( #144, #204 ) ;
#128 = ORIENTED_EDGE ( 'NONE', *, *, #152, .T. ) ;
#129 = VERTEX_POINT ( 'NONE', #69 ) ;
#130 = LINE ( 'NONE', #133, #163 ) ;
#131 = DIRECTION ( 'NONE',  ( -0.000000000000000000, -0.000000000000000000, -1.000000000000000000 ) ) ;
#132 = ADVANCED_FACE ( 'NONE', ( #135 ), #229, .F. ) ;
#133 = CARTESIAN_POINT ( 'NONE',  ( 4.099999999999999645, 5.021051876504147385E-16, 320.0000000000000000 ) ) ;
#134 = DIRECTION ( 'NONE',  ( 1.000000000000000000, 0.000000000000000000, 0.000000000000000000 ) ) ;
#135 = FACE_OUTER_BOUND ( 'NONE', #290, .T. ) ;
#136 = TOROIDAL_SURFACE ( 'NONE', #151, 4.299999999999998934, 0.2000000000000000111 ) ;
#137 = EDGE_CURVE ( 'NONE', #174, #212, #275, .T. ) ;
#138 = FACE_OUTER_BOUND ( 'NONE', #30, .T. ) ;
#139 = CARTESIAN_POINT ( 'NONE',  ( 7.000000000000000000, 8.572527594031473190E-16, 5.000000000000000000 ) ) ;
#140 = DIRECTION ( 'NONE',  ( -0.000000000000000000, -0.000000000000000000, -1.000000000000000000 ) ) ;
#141 =( NAMED_UNIT ( * ) SI_UNIT ( $, .STERADIAN. ) SOLID_ANGLE_UNIT ( ) );
#142 = ORIENTED_EDGE ( 'NONE', *, *, #266, .T. ) ;
#143 = APPROVAL_STATUS ( 'not_yet_approved' ) ;
#144 = CALENDAR_DATE ( 2022, 7, 7 ) ;
#145 = AXIS2_PLACEMENT_3D ( 'NONE', #276, #205, #42 ) ;
#146 = APPROVAL_DATE_TIME ( #70, #46 ) ;
#147 = ORIENTED_EDGE ( 'NONE', *, *, #152, .F. ) ;
#148 = PERSON_AND_ORGANIZATION_ROLE ( 'design_supplier' ) ;
#149 = ADVANCED_FACE ( 'NONE', ( #87 ), #227, .T. ) ;
#150 = LINE ( 'NONE', #37, #198 ) ;
#151 = AXIS2_PLACEMENT_3D ( 'NONE', #80, #178, #247 ) ;
#152 = EDGE_CURVE ( 'NONE', #170, #155, #157, .T. ) ;
#153 = ORIENTED_EDGE ( 'NONE', *, *, #41, .T. ) ;
#154 = FACE_OUTER_BOUND ( 'NONE', #189, .T. ) ;
#155 = VERTEX_POINT ( 'NONE', #183 ) ;
#156 = CC_DESIGN_DATE_AND_TIME_ASSIGNMENT ( #173, #126, ( #171 ) ) ;
#157 = CIRCLE ( 'NONE', #145, 4.299999999999998934 ) ;
#158 = CC_DESIGN_APPROVAL ( #46, ( #171 ) ) ;
#159 = DIRECTION ( 'NONE',  ( -0.000000000000000000, -0.000000000000000000, -1.000000000000000000 ) ) ;
#160 = CARTESIAN_POINT ( 'NONE',  ( 0.000000000000000000, 0.000000000000000000, 320.0000000000000000 ) ) ;
#161 = DIRECTION ( 'NONE',  ( 0.000000000000000000, 0.000000000000000000, 1.000000000000000000 ) ) ;
#162 = CARTESIAN_POINT ( 'NONE',  ( 7.000000000000000000, 8.572527594031473190E-16, 5.000000000000000000 ) ) ;
#163 = VECTOR ( 'NONE', #104, 1000.000000000000000 ) ;
#164 = DIRECTION ( 'NONE',  ( 0.000000000000000000, 0.000000000000000000, 1.000000000000000000 ) ) ;
#165 = CARTESIAN_POINT ( 'NONE',  ( 0.000000000000000000, 0.000000000000000000, 5.000000000000000000 ) ) ;
#166 = PERSON_AND_ORGANIZATION_ROLE ( 'creator' ) ;
#167 = AXIS2_PLACEMENT_3D ( 'NONE', #94, #62, #251 ) ;
#168 = COORDINATED_UNIVERSAL_TIME_OFFSET ( 1, 0, .AHEAD. ) ;
#169 = APPROVAL_ROLE ( '' ) ;
#170 = VERTEX_POINT ( 'NONE', #17 ) ;
#171 = PRODUCT_DEFINITION ( 'NEZNÁMÝ', '', #72, #116 ) ;
#172 = PERSON_AND_ORGANIZATION ( #244, #118 ) ;
#173 = DATE_AND_TIME ( #261, #21 ) ;
#174 = VERTEX_POINT ( 'NONE', #113 ) ;
#175 = DIRECTION ( 'NONE',  ( 0.000000000000000000, -1.000000000000000000, 0.000000000000000000 ) ) ;
#176 = EDGE_CURVE ( 'NONE', #260, #32, #250, .T. ) ;
#177 = VERTEX_POINT ( 'NONE', #65 ) ;
#178 = DIRECTION ( 'NONE',  ( 0.000000000000000000, 0.000000000000000000, 1.000000000000000000 ) ) ;
#179 = DIRECTION ( 'NONE',  ( 1.000000000000000000, 0.000000000000000000, 0.000000000000000000 ) ) ;
#180 = DIRECTION ( 'NONE',  ( 0.000000000000000000, 0.000000000000000000, 1.000000000000000000 ) ) ;
#181 = DIRECTION ( 'NONE',  ( -0.000000000000000000, -0.000000000000000000, -1.000000000000000000 ) ) ;
#182 = DIRECTION ( 'NONE',  ( 0.000000000000000000, 0.000000000000000000, 1.000000000000000000 ) ) ;
#183 = CARTESIAN_POINT ( 'NONE',  ( 4.299999999999998934, 0.000000000000000000, 4.999999999999991118 ) ) ;
#184 = PLANE ( 'NONE',  #190 ) ;
#185 = AXIS2_PLACEMENT_3D ( 'NONE', #197, #159, #84 ) ;
#186 = DIRECTION ( 'NONE',  ( -0.000000000000000000, -0.000000000000000000, -1.000000000000000000 ) ) ;
#187 = CALENDAR_DATE ( 2022, 7, 7 ) ;
#188 = PERSON_AND_ORGANIZATION_ROLE ( 'design_owner' ) ;
#189 = EDGE_LOOP ( 'NONE', ( #268, #279, #54, #147 ) ) ;
#190 = AXIS2_PLACEMENT_3D ( 'NONE', #165, #182, #272 ) ;
#191 = LOCAL_TIME ( 12, 0, 49.00000000000000000, #53 ) ;
#192 = PERSON_AND_ORGANIZATION ( #244, #118 ) ;
#193 = ORIENTED_EDGE ( 'NONE', *, *, #213, .T. ) ;
#194 = ORIENTED_EDGE ( 'NONE', *, *, #137, .T. ) ;
#195 =( GEOMETRIC_REPRESENTATION_CONTEXT ( 3 ) GLOBAL_UNCERTAINTY_ASSIGNED_CONTEXT ( ( #242 ) ) GLOBAL_UNIT_ASSIGNED_CONTEXT ( ( #278, #27, #141 ) ) REPRESENTATION_CONTEXT ( 'NONE', 'WORKASPACE' ) );
#196 = DIRECTION ( 'NONE',  ( 1.000000000000000000, 0.000000000000000000, 0.000000000000000000 ) ) ;
#197 = CARTESIAN_POINT ( 'NONE',  ( 0.000000000000000000, 0.000000000000000000, 5.000000000000000000 ) ) ;
#198 = VECTOR ( 'NONE', #131, 1000.000000000000000 ) ;
#199 = EDGE_CURVE ( 'NONE', #177, #170, #51, .T. ) ;
#200 = CARTESIAN_POINT ( 'NONE',  ( 0.000000000000000000, 0.000000000000000000, 5.000000000000000000 ) ) ;
#201 = ORIENTED_EDGE ( 'NONE', *, *, #79, .T. ) ;
#202 = DIRECTION ( 'NONE',  ( -1.000000000000000000, 0.000000000000000000, 0.000000000000000000 ) ) ;
#203 = VECTOR ( 'NONE', #186, 1000.000000000000000 ) ;
#204 = LOCAL_TIME ( 12, 0, 49.00000000000000000, #49 ) ;
#205 = DIRECTION ( 'NONE',  ( -0.000000000000000000, -0.000000000000000000, -1.000000000000000000 ) ) ;
#206 = ADVANCED_FACE ( 'NONE', ( #302, #306 ), #184, .T. ) ;
#207 = DIRECTION ( 'NONE',  ( 1.000000000000000000, 0.000000000000000000, 0.000000000000000000 ) ) ;
#208 = LINE ( 'NONE', #209, #246 ) ;
#209 = CARTESIAN_POINT ( 'NONE',  ( -4.099999999999999645, 0.000000000000000000, 320.0000000000000000 ) ) ;
#210 = AXIS2_PLACEMENT_3D ( 'NONE', #223, #292, #265 ) ;
#211 = APPLICATION_PROTOCOL_DEFINITION ( 'international standard', 'config_control_design', 1994, #222 ) ;
#212 = VERTEX_POINT ( 'NONE', #162 ) ;
#213 = EDGE_CURVE ( 'NONE', #177, #35, #77, .T. ) ;
#214 = CARTESIAN_POINT ( 'NONE',  ( 0.000000000000000000, 0.000000000000000000, 0.000000000000000000 ) ) ;
#215 = APPROVAL_ROLE ( '' ) ;
#216 = ORIENTED_EDGE ( 'NONE', *, *, #199, .T. ) ;
#217 = CC_DESIGN_DATE_AND_TIME_ASSIGNMENT ( #29, #124, ( #300 ) ) ;
#218 = CIRCLE ( 'NONE', #88, 7.000000000000000000 ) ;
#219 = APPROVAL_DATE_TIME ( #127, #114 ) ;
#220 = VERTEX_POINT ( 'NONE', #44 ) ;
#221 = ORIENTED_EDGE ( 'NONE', *, *, #266, .F. ) ;
#222 = APPLICATION_CONTEXT ( 'configuration controlled 3d designs of mechanical parts and assemblies' ) ;
#223 = CARTESIAN_POINT ( 'NONE',  ( 0.000000000000000000, 0.000000000000000000, 320.0000000000000000 ) ) ;
#224 = DIRECTION ( 'NONE',  ( 0.000000000000000000, 0.000000000000000000, 1.000000000000000000 ) ) ;
#225 = ORIENTED_EDGE ( 'NONE', *, *, #137, .F. ) ;
#226 = ADVANCED_FACE ( 'NONE', ( #138 ), #19, .T. ) ;
#227 = CYLINDRICAL_SURFACE ( 'NONE', #299, 4.099999999999999645 ) ;
#228 = AXIS2_PLACEMENT_3D ( 'NONE', #47, #140, #202 ) ;
#229 = PLANE ( 'NONE',  #233 ) ;
#230 = CARTESIAN_POINT ( 'NONE',  ( 0.000000000000000000, 0.000000000000000000, 320.0000000000000000 ) ) ;
#231 = CC_DESIGN_PERSON_AND_ORGANIZATION_ASSIGNMENT ( #238, #148, ( #72 ) ) ;
#232 = CARTESIAN_POINT ( 'NONE',  ( 0.000000000000000000, 0.000000000000000000, 5.000000000000000000 ) ) ;
#233 = AXIS2_PLACEMENT_3D ( 'NONE', #40, #303, #64 ) ;
#234 = CYLINDRICAL_SURFACE ( 'NONE', #254, 7.000000000000000000 ) ;
#235 = MECHANICAL_CONTEXT ( 'NONE', #288, 'mechanical' ) ;
#236 = MANIFOLD_SOLID_BREP ( 'Zaoblit1', #98 ) ;
#237 = PERSON_AND_ORGANIZATION_ROLE ( 'classification_officer' ) ;
#238 = PERSON_AND_ORGANIZATION ( #244, #118 ) ;
#239 = COORDINATED_UNIVERSAL_TIME_OFFSET ( 1, 0, .AHEAD. ) ;
#240 = PLANE ( 'NONE',  #210 ) ;
#241 = CC_DESIGN_SECURITY_CLASSIFICATION ( #300, ( #72 ) ) ;
#242 = UNCERTAINTY_MEASURE_WITH_UNIT (LENGTH_MEASURE( 1.000000000000000082E-05 ), #278, 'distance_accuracy_value', 'NONE');
#243 = CARTESIAN_POINT ( 'NONE',  ( 4.299999999999998934, 0.000000000000000000, 5.199999999999982414 ) ) ;
#244 = PERSON ( 'NEURÈENÝ', 'NEURÈENÝ', 'NEURÈENÝ', ('NEURÈENÝ'), ('NEURÈENÝ'), ('NEURÈENÝ') ) ;
#245 = CARTESIAN_POINT ( 'NONE',  ( -4.099999999999999645, 0.000000000000000000, 320.0000000000000000 ) ) ;
#246 = VECTOR ( 'NONE', #92, 1000.000000000000000 ) ;
#247 = DIRECTION ( 'NONE',  ( 1.000000000000000000, 0.000000000000000000, 0.000000000000000000 ) ) ;
#248 = DIRECTION ( 'NONE',  ( -1.000000000000000000, 0.000000000000000000, 0.000000000000000000 ) ) ;
#249 = CARTESIAN_POINT ( 'NONE',  ( 0.000000000000000000, 0.000000000000000000, 320.0000000000000000 ) ) ;
#250 = CIRCLE ( 'NONE', #4, 4.099999999999999645 ) ;
#251 = DIRECTION ( 'NONE',  ( 1.000000000000000000, 0.000000000000000000, 0.000000000000000000 ) ) ;
#252 = LINE ( 'NONE', #139, #203 ) ;
#253 = CYLINDRICAL_SURFACE ( 'NONE', #228, 7.000000000000000000 ) ;
#254 = AXIS2_PLACEMENT_3D ( 'NONE', #298, #45, #274 ) ;
#255 = COORDINATED_UNIVERSAL_TIME_OFFSET ( 1, 0, .AHEAD. ) ;
#256 = EDGE_LOOP ( 'NONE', ( #39, #225, #50, #267 ) ) ;
#257 = EDGE_CURVE ( 'NONE', #32, #177, #208, .T. ) ;
#258 = APPLICATION_PROTOCOL_DEFINITION ( 'international standard', 'config_control_design', 1994, #288 ) ;
#259 = PRODUCT_DEFINITION_SHAPE ( 'NONE', 'NONE',  #171 ) ;
#260 = VERTEX_POINT ( 'NONE', #68 ) ;
#261 = CALENDAR_DATE ( 2022, 7, 7 ) ;
#262 = APPROVAL_ROLE ( '' ) ;
#263 = AXIS2_PLACEMENT_3D ( 'NONE', #297, #86, #270 ) ;
#264 = EDGE_LOOP ( 'NONE', ( #142, #58 ) ) ;
#265 = DIRECTION ( 'NONE',  ( 1.000000000000000000, 0.000000000000000000, -0.000000000000000000 ) ) ;
#266 = EDGE_CURVE ( 'NONE', #32, #260, #125, .T. ) ;
#267 = ORIENTED_EDGE ( 'NONE', *, *, #93, .T. ) ;
#268 = ORIENTED_EDGE ( 'NONE', *, *, #199, .F. ) ;
#269 = DIRECTION ( 'NONE',  ( 0.000000000000000000, 0.000000000000000000, 1.000000000000000000 ) ) ;
#270 = DIRECTION ( 'NONE',  ( 1.000000000000000000, 0.000000000000000000, 0.000000000000000000 ) ) ;
#271 = CC_DESIGN_APPROVAL ( #114, ( #300 ) ) ;
#272 = DIRECTION ( 'NONE',  ( 1.000000000000000000, 0.000000000000000000, -0.000000000000000000 ) ) ;
#273 = CARTESIAN_POINT ( 'NONE',  ( -4.299999999999998934, 5.265981236333617484E-16, 5.199999999999982414 ) ) ;
#274 = DIRECTION ( 'NONE',  ( -1.000000000000000000, 0.000000000000000000, 0.000000000000000000 ) ) ;
#275 = CIRCLE ( 'NONE', #15, 7.000000000000000000 ) ;
#276 = CARTESIAN_POINT ( 'NONE',  ( 0.000000000000000000, 0.000000000000000000, 5.000000000000000000 ) ) ;
#277 = FACE_OUTER_BOUND ( 'NONE', #100, .T. ) ;
#278 =( LENGTH_UNIT ( ) NAMED_UNIT ( * ) SI_UNIT ( .MILLI., .METRE. ) );
#279 = ORIENTED_EDGE ( 'NONE', *, *, #41, .F. ) ;
#280 = EDGE_CURVE ( 'NONE', #212, #129, #252, .T. ) ;
#281 = CIRCLE ( 'NONE', #263, 7.000000000000000000 ) ;
#282 = CALENDAR_DATE ( 2022, 7, 7 ) ;
#283 = APPROVAL_PERSON_ORGANIZATION ( #284, #114, #169 ) ;
#284 = PERSON_AND_ORGANIZATION ( #244, #118 ) ;
#285 = PRODUCT ( '48f7', '48f7', '', ( #235 ) ) ;
#286 = ORIENTED_EDGE ( 'NONE', *, *, #25, .T. ) ;
#287 = ADVANCED_FACE ( 'NONE', ( #277 ), #253, .T. ) ;
#288 = APPLICATION_CONTEXT ( 'configuration controlled 3d designs of mechanical parts and assemblies' ) ;
#289 = DIRECTION ( 'NONE',  ( 0.000000000000000000, 0.000000000000000000, 1.000000000000000000 ) ) ;
#290 = EDGE_LOOP ( 'NONE', ( #294, #60 ) ) ;
#291 = APPROVAL_PERSON_ORGANIZATION ( #172, #46, #262 ) ;
#292 = DIRECTION ( 'NONE',  ( 0.000000000000000000, 0.000000000000000000, 1.000000000000000000 ) ) ;
#293 = DIRECTION ( 'NONE',  ( 1.000000000000000000, 0.000000000000000000, 0.000000000000000000 ) ) ;
#294 = ORIENTED_EDGE ( 'NONE', *, *, #93, .F. ) ;
#295 = AXIS2_PLACEMENT_3D ( 'NONE', #273, #301, #90 ) ;
#296 = CARTESIAN_POINT ( 'NONE',  ( 0.000000000000000000, 0.000000000000000000, 5.199999999999982414 ) ) ;
#297 = CARTESIAN_POINT ( 'NONE',  ( 0.000000000000000000, 0.000000000000000000, 0.000000000000000000 ) ) ;
#298 = CARTESIAN_POINT ( 'NONE',  ( 0.000000000000000000, 0.000000000000000000, 5.000000000000000000 ) ) ;
#299 = AXIS2_PLACEMENT_3D ( 'NONE', #249, #181, #248 ) ;
#300 = SECURITY_CLASSIFICATION ( '', '', #95 ) ;
#301 = DIRECTION ( 'NONE',  ( 1.224646799147353207E-16, 1.000000000000000000, -0.000000000000000000 ) ) ;
#302 = FACE_BOUND ( 'NONE', #103, .T. ) ;
#303 = DIRECTION ( 'NONE',  ( 0.000000000000000000, 0.000000000000000000, 1.000000000000000000 ) ) ;
#304 = ADVANCED_BREP_SHAPE_REPRESENTATION ( '48f7', ( #236, #43 ), #195 ) ;
#305 = CIRCLE ( 'NONE', #48, 4.099999999999999645 ) ;
#306 = FACE_OUTER_BOUND ( 'NONE', #9, .T. ) ;
#307 = PERSON_AND_ORGANIZATION ( #244, #118 ) ;
ENDSEC;
END-ISO-10303-21;
