ISO-10303-21;
HEADER;
FILE_DESCRIPTION (( 'STEP AP203' ),
    '1' );
FILE_NAME ('4ff0.STEP',
    '2022-07-07T09:42:08',
    ( '' ),
    ( '' ),
    'SwSTEP 2.0',
    'SolidWorks 2019',
    '' );
FILE_SCHEMA (( 'CONFIG_CONTROL_DESIGN' ));
ENDSEC;

DATA;
#1 = PLANE ( 'NONE',  #255 ) ;
#2 = ORIENTED_EDGE ( 'NONE', *, *, #133, .T. ) ;
#3 = APPROVAL_DATE_TIME ( #222, #288 ) ;
#4 = CALENDAR_DATE ( 2022, 7, 7 ) ;
#5 = ORIENTED_EDGE ( 'NONE', *, *, #105, .T. ) ;
#6 = MANIFOLD_SOLID_BREP ( 'Zaoblit1', #182 ) ;
#7 = APPROVAL_PERSON_ORGANIZATION ( #91, #288, #48 ) ;
#8 = AXIS2_PLACEMENT_3D ( 'NONE', #69, #171, #24 ) ;
#9 = CARTESIAN_POINT ( 'NONE',  ( -6.450000000000000178, 7.898971854500428692E-16, 7.199999999999984190 ) ) ;
#10 = CIRCLE ( 'NONE', #203, 9.000000000000000000 ) ;
#11 = DESIGN_CONTEXT ( 'detailed design', #192, 'design' ) ;
#12 = FACE_OUTER_BOUND ( 'NONE', #116, .T. ) ;
#13 = DIRECTION ( 'NONE',  ( 0.000000000000000000, 0.000000000000000000, 1.000000000000000000 ) ) ;
#14 = APPLICATION_CONTEXT ( 'configuration controlled 3d designs of mechanical parts and assemblies' ) ;
#15 = APPROVAL_STATUS ( 'not_yet_approved' ) ;
#16 = DIRECTION ( 'NONE',  ( 1.000000000000000000, 0.000000000000000000, 0.000000000000000000 ) ) ;
#17 = DIRECTION ( 'NONE',  ( 1.000000000000000000, 0.000000000000000000, 0.000000000000000000 ) ) ;
#18 = AXIS2_PLACEMENT_3D ( 'NONE', #297, #274, #60 ) ;
#19 =( LENGTH_UNIT ( ) NAMED_UNIT ( * ) SI_UNIT ( .MILLI., .METRE. ) );
#20 = FACE_OUTER_BOUND ( 'NONE', #88, .T. ) ;
#21 = ORIENTED_EDGE ( 'NONE', *, *, #234, .F. ) ;
#22 = ORGANIZATION ( 'NEURÈENÝ', 'NEURÈENÝ', '' ) ;
#23 = CARTESIAN_POINT ( 'NONE',  ( -6.450000000000000178, 7.898971854500428692E-16, 6.999999999999992006 ) ) ;
#24 = DIRECTION ( 'NONE',  ( -1.000000000000000000, 0.000000000000000000, 0.000000000000000000 ) ) ;
#25 = EDGE_LOOP ( 'NONE', ( #147, #29 ) ) ;
#26 = COORDINATED_UNIVERSAL_TIME_OFFSET ( 1, 0, .AHEAD. ) ;
#27 = CC_DESIGN_PERSON_AND_ORGANIZATION_ASSIGNMENT ( #76, #96, ( #240 ) ) ;
#28 = DIRECTION ( 'NONE',  ( 0.000000000000000000, 0.000000000000000000, 1.000000000000000000 ) ) ;
#29 = ORIENTED_EDGE ( 'NONE', *, *, #293, .T. ) ;
#30 = CIRCLE ( 'NONE', #64, 9.000000000000000000 ) ;
#31 = CC_DESIGN_PERSON_AND_ORGANIZATION_ASSIGNMENT ( #243, #78, ( #270 ) ) ;
#32 = CC_DESIGN_SECURITY_CLASSIFICATION ( #46, ( #240 ) ) ;
#33 = LOCAL_TIME ( 11, 42, 8.000000000000000000, #50 ) ;
#34 = FACE_OUTER_BOUND ( 'NONE', #245, .T. ) ;
#35 = CARTESIAN_POINT ( 'NONE',  ( -9.000000000000000000, 0.000000000000000000, 7.000000000000000000 ) ) ;
#36 = DIRECTION ( 'NONE',  ( 0.000000000000000000, -1.000000000000000000, 0.000000000000000000 ) ) ;
#37 = CARTESIAN_POINT ( 'NONE',  ( 9.000000000000000000, 1.102182119232617714E-15, 7.000000000000000000 ) ) ;
#38 = APPROVAL_DATE_TIME ( #166, #66 ) ;
#39 = DIRECTION ( 'NONE',  ( 0.000000000000000000, 0.000000000000000000, 1.000000000000000000 ) ) ;
#40 = PLANE ( 'NONE',  #18 ) ;
#41 = ORIENTED_EDGE ( 'NONE', *, *, #293, .F. ) ;
#42 = CARTESIAN_POINT ( 'NONE',  ( 0.000000000000000000, 0.000000000000000000, 0.000000000000000000 ) ) ;
#43 = DIRECTION ( 'NONE',  ( 0.000000000000000000, 0.000000000000000000, 1.000000000000000000 ) ) ;
#44 = ORIENTED_EDGE ( 'NONE', *, *, #188, .F. ) ;
#45 = AXIS2_PLACEMENT_3D ( 'NONE', #120, #239, #187 ) ;
#46 = SECURITY_CLASSIFICATION ( '', '', #122 ) ;
#47 = AXIS2_PLACEMENT_3D ( 'NONE', #164, #36, #241 ) ;
#48 = APPROVAL_ROLE ( '' ) ;
#49 = EDGE_LOOP ( 'NONE', ( #71, #77 ) ) ;
#50 = COORDINATED_UNIVERSAL_TIME_OFFSET ( 1, 0, .AHEAD. ) ;
#51 = ORIENTED_EDGE ( 'NONE', *, *, #105, .F. ) ;
#52 = AXIS2_PLACEMENT_3D ( 'NONE', #108, #13, #17 ) ;
#53 = CIRCLE ( 'NONE', #52, 6.250000000000000000 ) ;
#54 = TOROIDAL_SURFACE ( 'NONE', #156, 6.450000000000000178, 0.2000000000000000111 ) ;
#55 = PRODUCT_RELATED_PRODUCT_CATEGORY ( 'detail', '', ( #270 ) ) ;
#56 = CIRCLE ( 'NONE', #230, 6.250000000000000000 ) ;
#57 = AXIS2_PLACEMENT_3D ( 'NONE', #260, #258, #62 ) ;
#58 = LOCAL_TIME ( 11, 42, 8.000000000000000000, #26 ) ;
#59 = ADVANCED_FACE ( 'NONE', ( #236 ), #209, .F. ) ;
#60 = DIRECTION ( 'NONE',  ( 1.000000000000000000, 0.000000000000000000, -0.000000000000000000 ) ) ;
#61 = CARTESIAN_POINT ( 'NONE',  ( 0.000000000000000000, 0.000000000000000000, 7.000000000000000000 ) ) ;
#62 = DIRECTION ( 'NONE',  ( 1.000000000000000000, 0.000000000000000000, 0.000000000000000000 ) ) ;
#63 = CARTESIAN_POINT ( 'NONE',  ( 0.000000000000000000, 0.000000000000000000, 7.199999999999984190 ) ) ;
#64 = AXIS2_PLACEMENT_3D ( 'NONE', #186, #112, #278 ) ;
#65 = FACE_OUTER_BOUND ( 'NONE', #181, .T. ) ;
#66 = APPROVAL ( #208, 'NEURÈENÝ' ) ;
#67 = EDGE_CURVE ( 'NONE', #130, #283, #53, .T. ) ;
#68 = COORDINATED_UNIVERSAL_TIME_OFFSET ( 1, 0, .AHEAD. ) ;
#69 = CARTESIAN_POINT ( 'NONE',  ( 0.000000000000000000, 0.000000000000000000, 7.000000000000000000 ) ) ;
#70 = ORIENTED_EDGE ( 'NONE', *, *, #256, .F. ) ;
#71 = ORIENTED_EDGE ( 'NONE', *, *, #149, .T. ) ;
#72 = CARTESIAN_POINT ( 'NONE',  ( 0.000000000000000000, 0.000000000000000000, 637.0000000000000000 ) ) ;
#73 = CYLINDRICAL_SURFACE ( 'NONE', #131, 6.250000000000000000 ) ;
#74 = COORDINATED_UNIVERSAL_TIME_OFFSET ( 1, 0, .AHEAD. ) ;
#75 = DIRECTION ( 'NONE',  ( 1.000000000000000000, 0.000000000000000000, 0.000000000000000000 ) ) ;
#76 = PERSON_AND_ORGANIZATION ( #272, #22 ) ;
#77 = ORIENTED_EDGE ( 'NONE', *, *, #268, .T. ) ;
#78 = PERSON_AND_ORGANIZATION_ROLE ( 'design_owner' ) ;
#79 = PERSON_AND_ORGANIZATION ( #272, #22 ) ;
#80 = SHAPE_DEFINITION_REPRESENTATION ( #155, #138 ) ;
#81 = CC_DESIGN_PERSON_AND_ORGANIZATION_ASSIGNMENT ( #223, #289, ( #240 ) ) ;
#82 = LOCAL_TIME ( 11, 42, 8.000000000000000000, #68 ) ;
#83 = VECTOR ( 'NONE', #90, 1000.000000000000000 ) ;
#84 = ADVANCED_FACE ( 'NONE', ( #146 ), #279, .T. ) ;
#85 = CIRCLE ( 'NONE', #224, 6.450000000000000178 ) ;
#86 = ORIENTED_EDGE ( 'NONE', *, *, #154, .T. ) ;
#87 = CARTESIAN_POINT ( 'NONE',  ( -9.000000000000000000, 0.000000000000000000, 7.000000000000000000 ) ) ;
#88 = EDGE_LOOP ( 'NONE', ( #168, #266 ) ) ;
#89 = CARTESIAN_POINT ( 'NONE',  ( 6.250000000000000000, 7.654042494670957606E-16, 7.199999999999984190 ) ) ;
#90 = DIRECTION ( 'NONE',  ( -0.000000000000000000, -0.000000000000000000, -1.000000000000000000 ) ) ;
#91 = PERSON_AND_ORGANIZATION ( #272, #22 ) ;
#92 = CARTESIAN_POINT ( 'NONE',  ( 0.000000000000000000, 0.000000000000000000, 637.0000000000000000 ) ) ;
#93 = CIRCLE ( 'NONE', #157, 6.250000000000000000 ) ;
#94 = DIRECTION ( 'NONE',  ( 1.000000000000000000, 0.000000000000000000, 0.000000000000000000 ) ) ;
#95 = DIRECTION ( 'NONE',  ( -0.000000000000000000, -0.000000000000000000, -1.000000000000000000 ) ) ;
#96 = PERSON_AND_ORGANIZATION_ROLE ( 'design_supplier' ) ;
#97 = ORIENTED_EDGE ( 'NONE', *, *, #234, .T. ) ;
#98 = ORIENTED_EDGE ( 'NONE', *, *, #296, .T. ) ;
#99 = DIRECTION ( 'NONE',  ( 0.000000000000000000, 0.000000000000000000, 1.000000000000000000 ) ) ;
#100 = VERTEX_POINT ( 'NONE', #35 ) ;
#101 = PERSON_AND_ORGANIZATION ( #272, #22 ) ;
#102 = PERSON_AND_ORGANIZATION_ROLE ( 'classification_officer' ) ;
#103 = AXIS2_PLACEMENT_3D ( 'NONE', #118, #99, #257 ) ;
#104 = LOCAL_TIME ( 11, 42, 8.000000000000000000, #74 ) ;
#105 = EDGE_CURVE ( 'NONE', #299, #290, #119, .T. ) ;
#106 = ADVANCED_FACE ( 'NONE', ( #202 ), #40, .F. ) ;
#107 = VECTOR ( 'NONE', #180, 1000.000000000000000 ) ;
#108 = CARTESIAN_POINT ( 'NONE',  ( 0.000000000000000000, 0.000000000000000000, 637.0000000000000000 ) ) ;
#109 = UNCERTAINTY_MEASURE_WITH_UNIT (LENGTH_MEASURE( 1.000000000000000082E-05 ), #19, 'distance_accuracy_value', 'NONE');
#110 = APPROVAL ( #145, 'NEURÈENÝ' ) ;
#111 = AXIS2_PLACEMENT_3D ( 'NONE', #142, #191, #262 ) ;
#112 = DIRECTION ( 'NONE',  ( 0.000000000000000000, 0.000000000000000000, 1.000000000000000000 ) ) ;
#113 = DIRECTION ( 'NONE',  ( 0.000000000000000000, 0.000000000000000000, 1.000000000000000000 ) ) ;
#114 = CC_DESIGN_DATE_AND_TIME_ASSIGNMENT ( #197, #220, ( #46 ) ) ;
#115 = CARTESIAN_POINT ( 'NONE',  ( 0.000000000000000000, 0.000000000000000000, 7.000000000000000000 ) ) ;
#116 = EDGE_LOOP ( 'NONE', ( #221, #179, #277, #98 ) ) ;
#117 = PERSON_AND_ORGANIZATION ( #272, #22 ) ;
#118 = CARTESIAN_POINT ( 'NONE',  ( 0.000000000000000000, 0.000000000000000000, 7.000000000000000000 ) ) ;
#119 = CIRCLE ( 'NONE', #158, 0.1999999999999996503 ) ;
#120 = CARTESIAN_POINT ( 'NONE',  ( 0.000000000000000000, 0.000000000000000000, 7.000000000000000000 ) ) ;
#121 = DIRECTION ( 'NONE',  ( -1.000000000000000000, 0.000000000000000000, 0.000000000000000000 ) ) ;
#122 = SECURITY_CLASSIFICATION_LEVEL ( 'unclassified' ) ;
#123 = ORIENTED_EDGE ( 'NONE', *, *, #149, .F. ) ;
#124 = ORIENTED_EDGE ( 'NONE', *, *, #159, .F. ) ;
#125 = CARTESIAN_POINT ( 'NONE',  ( -9.000000000000000000, 0.000000000000000000, 0.000000000000000000 ) ) ;
#126 = ORIENTED_EDGE ( 'NONE', *, *, #178, .F. ) ;
#127 = CALENDAR_DATE ( 2022, 7, 7 ) ;
#128 = CALENDAR_DATE ( 2022, 7, 7 ) ;
#129 = DIRECTION ( 'NONE',  ( 1.000000000000000000, 0.000000000000000000, 0.000000000000000000 ) ) ;
#130 = VERTEX_POINT ( 'NONE', #160 ) ;
#131 = AXIS2_PLACEMENT_3D ( 'NONE', #259, #144, #148 ) ;
#132 = CC_DESIGN_DATE_AND_TIME_ASSIGNMENT ( #153, #246, ( #249 ) ) ;
#133 = EDGE_CURVE ( 'NONE', #194, #217, #252, .T. ) ;
#134 = VECTOR ( 'NONE', #95, 1000.000000000000000 ) ;
#135 = CIRCLE ( 'NONE', #47, 0.1999999999999996503 ) ;
#136 = LOCAL_TIME ( 11, 42, 8.000000000000000000, #195 ) ;
#137 = ADVANCED_FACE ( 'NONE', ( #65 ), #54, .F. ) ;
#138 = ADVANCED_BREP_SHAPE_REPRESENTATION ( '4ff0', ( #6, #227 ), #250 ) ;
#139 = CARTESIAN_POINT ( 'NONE',  ( 0.000000000000000000, 0.000000000000000000, 7.199999999999984190 ) ) ;
#140 = CYLINDRICAL_SURFACE ( 'NONE', #214, 9.000000000000000000 ) ;
#141 = ORIENTED_EDGE ( 'NONE', *, *, #296, .F. ) ;
#142 = CARTESIAN_POINT ( 'NONE',  ( 0.000000000000000000, 0.000000000000000000, 0.000000000000000000 ) ) ;
#143 = DIRECTION ( 'NONE',  ( 1.000000000000000000, 0.000000000000000000, 0.000000000000000000 ) ) ;
#144 = DIRECTION ( 'NONE',  ( -0.000000000000000000, -0.000000000000000000, -1.000000000000000000 ) ) ;
#145 = APPROVAL_STATUS ( 'not_yet_approved' ) ;
#146 = FACE_OUTER_BOUND ( 'NONE', #25, .T. ) ;
#147 = ORIENTED_EDGE ( 'NONE', *, *, #67, .T. ) ;
#148 = DIRECTION ( 'NONE',  ( -1.000000000000000000, 0.000000000000000000, 0.000000000000000000 ) ) ;
#149 = EDGE_CURVE ( 'NONE', #184, #290, #294, .T. ) ;
#150 = APPROVAL_PERSON_ORGANIZATION ( #79, #110, #292 ) ;
#151 = EDGE_LOOP ( 'NONE', ( #124, #196, #97, #86 ) ) ;
#152 = EDGE_LOOP ( 'NONE', ( #51, #126, #286, #307 ) ) ;
#153 = DATE_AND_TIME ( #237, #33 ) ;
#154 = EDGE_CURVE ( 'NONE', #299, #198, #163, .T. ) ;
#155 = PRODUCT_DEFINITION_SHAPE ( 'NONE', 'NONE',  #249 ) ;
#156 = AXIS2_PLACEMENT_3D ( 'NONE', #212, #304, #94 ) ;
#157 = AXIS2_PLACEMENT_3D ( 'NONE', #72, #284, #143 ) ;
#158 = AXIS2_PLACEMENT_3D ( 'NONE', #9, #301, #216 ) ;
#159 = EDGE_CURVE ( 'NONE', #283, #198, #229, .T. ) ;
#160 = CARTESIAN_POINT ( 'NONE',  ( -6.250000000000000000, 0.000000000000000000, 637.0000000000000000 ) ) ;
#161 = DIRECTION ( 'NONE',  ( -0.000000000000000000, -0.000000000000000000, -1.000000000000000000 ) ) ;
#162 = VERTEX_POINT ( 'NONE', #125 ) ;
#163 = CIRCLE ( 'NONE', #177, 6.250000000000000000 ) ;
#164 = CARTESIAN_POINT ( 'NONE',  ( 6.450000000000000178, 0.000000000000000000, 7.199999999999984190 ) ) ;
#165 = CARTESIAN_POINT ( 'NONE',  ( 0.000000000000000000, 0.000000000000000000, 637.0000000000000000 ) ) ;
#166 = DATE_AND_TIME ( #185, #82 ) ;
#167 = LINE ( 'NONE', #238, #134 ) ;
#168 = ORIENTED_EDGE ( 'NONE', *, *, #201, .T. ) ;
#169 = EDGE_LOOP ( 'NONE', ( #141, #242 ) ) ;
#170 = CARTESIAN_POINT ( 'NONE',  ( -6.250000000000000000, 0.000000000000000000, 7.199999999999984190 ) ) ;
#171 = DIRECTION ( 'NONE',  ( -0.000000000000000000, -0.000000000000000000, -1.000000000000000000 ) ) ;
#172 = CC_DESIGN_APPROVAL ( #110, ( #46 ) ) ;
#173 = APPROVAL_DATE_TIME ( #244, #110 ) ;
#174 = ORIENTED_EDGE ( 'NONE', *, *, #159, .T. ) ;
#175 = ADVANCED_FACE ( 'NONE', ( #306, #20 ), #1, .T. ) ;
#176 = CC_DESIGN_PERSON_AND_ORGANIZATION_ASSIGNMENT ( #101, #280, ( #249 ) ) ;
#177 = AXIS2_PLACEMENT_3D ( 'NONE', #139, #113, #282 ) ;
#178 = EDGE_CURVE ( 'NONE', #198, #299, #56, .T. ) ;
#179 = ORIENTED_EDGE ( 'NONE', *, *, #201, .F. ) ;
#180 = DIRECTION ( 'NONE',  ( -0.000000000000000000, -0.000000000000000000, -1.000000000000000000 ) ) ;
#181 = EDGE_LOOP ( 'NONE', ( #232, #5, #123, #261 ) ) ;
#182 = CLOSED_SHELL ( 'NONE', ( #137, #189, #269, #211, #175, #106, #200, #84, #59 ) ) ;
#183 = CARTESIAN_POINT ( 'NONE',  ( 9.000000000000000000, 1.102182119232617714E-15, 7.000000000000000000 ) ) ;
#184 = VERTEX_POINT ( 'NONE', #231 ) ;
#185 = CALENDAR_DATE ( 2022, 7, 7 ) ;
#186 = CARTESIAN_POINT ( 'NONE',  ( 0.000000000000000000, 0.000000000000000000, 7.000000000000000000 ) ) ;
#187 = DIRECTION ( 'NONE',  ( 1.000000000000000000, 0.000000000000000000, 0.000000000000000000 ) ) ;
#188 = EDGE_CURVE ( 'NONE', #194, #100, #226, .T. ) ;
#189 = ADVANCED_FACE ( 'NONE', ( #285 ), #73, .T. ) ;
#190 = MECHANICAL_CONTEXT ( 'NONE', #14, 'mechanical' ) ;
#191 = DIRECTION ( 'NONE',  ( 0.000000000000000000, 0.000000000000000000, 1.000000000000000000 ) ) ;
#192 = APPLICATION_CONTEXT ( 'configuration controlled 3d designs of mechanical parts and assemblies' ) ;
#193 = ORIENTED_EDGE ( 'NONE', *, *, #228, .T. ) ;
#194 = VERTEX_POINT ( 'NONE', #183 ) ;
#195 = COORDINATED_UNIVERSAL_TIME_OFFSET ( 1, 0, .AHEAD. ) ;
#196 = ORIENTED_EDGE ( 'NONE', *, *, #67, .F. ) ;
#197 = DATE_AND_TIME ( #4, #104 ) ;
#198 = VERTEX_POINT ( 'NONE', #89 ) ;
#199 = CC_DESIGN_APPROVAL ( #288, ( #249 ) ) ;
#200 = ADVANCED_FACE ( 'NONE', ( #210 ), #303, .T. ) ;
#201 = EDGE_CURVE ( 'NONE', #100, #194, #30, .T. ) ;
#202 = FACE_OUTER_BOUND ( 'NONE', #169, .T. ) ;
#203 = AXIS2_PLACEMENT_3D ( 'NONE', #42, #28, #129 ) ;
#204 = DIRECTION ( 'NONE',  ( 1.000000000000000000, 0.000000000000000000, -0.000000000000000000 ) ) ;
#205 = CARTESIAN_POINT ( 'NONE',  ( 6.250000000000000000, 7.654042494670957606E-16, 637.0000000000000000 ) ) ;
#206 = DIRECTION ( 'NONE',  ( -0.000000000000000000, -0.000000000000000000, -1.000000000000000000 ) ) ;
#207 = DIRECTION ( 'NONE',  ( 1.000000000000000000, 0.000000000000000000, -0.000000000000000000 ) ) ;
#208 = APPROVAL_STATUS ( 'not_yet_approved' ) ;
#209 = TOROIDAL_SURFACE ( 'NONE', #57, 6.450000000000000178, 0.2000000000000000111 ) ;
#210 = FACE_OUTER_BOUND ( 'NONE', #151, .T. ) ;
#211 = ADVANCED_FACE ( 'NONE', ( #12 ), #281, .T. ) ;
#212 = CARTESIAN_POINT ( 'NONE',  ( 0.000000000000000000, 0.000000000000000000, 7.199999999999984190 ) ) ;
#213 = CARTESIAN_POINT ( 'NONE',  ( 6.250000000000000000, 7.654042494670957606E-16, 637.0000000000000000 ) ) ;
#214 = AXIS2_PLACEMENT_3D ( 'NONE', #115, #206, #300 ) ;
#215 = CARTESIAN_POINT ( 'NONE',  ( 9.000000000000000000, 1.102182119232617714E-15, 0.000000000000000000 ) ) ;
#216 = DIRECTION ( 'NONE',  ( -1.000000000000000000, 1.224646799147353454E-16, 0.000000000000000000 ) ) ;
#217 = VERTEX_POINT ( 'NONE', #215 ) ;
#218 =( NAMED_UNIT ( * ) PLANE_ANGLE_UNIT ( ) SI_UNIT ( $, .RADIAN. ) );
#219 = DIRECTION ( 'NONE',  ( -0.000000000000000000, -0.000000000000000000, -1.000000000000000000 ) ) ;
#220 = DATE_TIME_ROLE ( 'classification_date' ) ;
#221 = ORIENTED_EDGE ( 'NONE', *, *, #133, .F. ) ;
#222 = DATE_AND_TIME ( #127, #58 ) ;
#223 = PERSON_AND_ORGANIZATION ( #272, #22 ) ;
#224 = AXIS2_PLACEMENT_3D ( 'NONE', #61, #161, #253 ) ;
#225 = EDGE_CURVE ( 'NONE', #198, #184, #135, .T. ) ;
#226 = CIRCLE ( 'NONE', #103, 9.000000000000000000 ) ;
#227 = AXIS2_PLACEMENT_3D ( 'NONE', #287, #265, #75 ) ;
#228 = EDGE_CURVE ( 'NONE', #217, #162, #271, .T. ) ;
#229 = LINE ( 'NONE', #205, #291 ) ;
#230 = AXIS2_PLACEMENT_3D ( 'NONE', #63, #43, #16 ) ;
#231 = CARTESIAN_POINT ( 'NONE',  ( 6.450000000000000178, 0.000000000000000000, 6.999999999999992006 ) ) ;
#232 = ORIENTED_EDGE ( 'NONE', *, *, #154, .F. ) ;
#233 = APPLICATION_PROTOCOL_DEFINITION ( 'international standard', 'config_control_design', 1994, #14 ) ;
#234 = EDGE_CURVE ( 'NONE', #130, #299, #167, .T. ) ;
#235 = CARTESIAN_POINT ( 'NONE',  ( 0.000000000000000000, 0.000000000000000000, 7.000000000000000000 ) ) ;
#236 = FACE_OUTER_BOUND ( 'NONE', #152, .T. ) ;
#237 = CALENDAR_DATE ( 2022, 7, 7 ) ;
#238 = CARTESIAN_POINT ( 'NONE',  ( -6.250000000000000000, 0.000000000000000000, 637.0000000000000000 ) ) ;
#239 = DIRECTION ( 'NONE',  ( -0.000000000000000000, -0.000000000000000000, -1.000000000000000000 ) ) ;
#240 = PRODUCT_DEFINITION_FORMATION_WITH_SPECIFIED_SOURCE ( 'LIBOVOLNÝ', '', #270, .NOT_KNOWN. ) ;
#241 = DIRECTION ( 'NONE',  ( 0.000000000000000000, 0.000000000000000000, -1.000000000000000000 ) ) ;
#242 = ORIENTED_EDGE ( 'NONE', *, *, #228, .F. ) ;
#243 = PERSON_AND_ORGANIZATION ( #272, #22 ) ;
#244 = DATE_AND_TIME ( #128, #136 ) ;
#245 = EDGE_LOOP ( 'NONE', ( #44, #2, #193, #70 ) ) ;
#246 = DATE_TIME_ROLE ( 'creation_date' ) ;
#247 = EDGE_LOOP ( 'NONE', ( #41, #174, #264, #21 ) ) ;
#248 = APPROVAL_PERSON_ORGANIZATION ( #117, #66, #302 ) ;
#249 = PRODUCT_DEFINITION ( 'NEZNÁMÝ', '', #240, #11 ) ;
#250 =( GEOMETRIC_REPRESENTATION_CONTEXT ( 3 ) GLOBAL_UNCERTAINTY_ASSIGNED_CONTEXT ( ( #109 ) ) GLOBAL_UNIT_ASSIGNED_CONTEXT ( ( #19, #218, #305 ) ) REPRESENTATION_CONTEXT ( 'NONE', 'WORKASPACE' ) );
#251 = AXIS2_PLACEMENT_3D ( 'NONE', #165, #254, #207 ) ;
#252 = LINE ( 'NONE', #37, #83 ) ;
#253 = DIRECTION ( 'NONE',  ( 1.000000000000000000, 0.000000000000000000, 0.000000000000000000 ) ) ;
#254 = DIRECTION ( 'NONE',  ( 0.000000000000000000, 0.000000000000000000, 1.000000000000000000 ) ) ;
#255 = AXIS2_PLACEMENT_3D ( 'NONE', #235, #39, #204 ) ;
#256 = EDGE_CURVE ( 'NONE', #100, #162, #298, .T. ) ;
#257 = DIRECTION ( 'NONE',  ( 1.000000000000000000, 0.000000000000000000, 0.000000000000000000 ) ) ;
#258 = DIRECTION ( 'NONE',  ( 0.000000000000000000, 0.000000000000000000, 1.000000000000000000 ) ) ;
#259 = CARTESIAN_POINT ( 'NONE',  ( 0.000000000000000000, 0.000000000000000000, 637.0000000000000000 ) ) ;
#260 = CARTESIAN_POINT ( 'NONE',  ( 0.000000000000000000, 0.000000000000000000, 7.199999999999984190 ) ) ;
#261 = ORIENTED_EDGE ( 'NONE', *, *, #225, .F. ) ;
#262 = DIRECTION ( 'NONE',  ( 1.000000000000000000, 0.000000000000000000, 0.000000000000000000 ) ) ;
#263 = PERSON_AND_ORGANIZATION ( #272, #22 ) ;
#264 = ORIENTED_EDGE ( 'NONE', *, *, #178, .T. ) ;
#265 = DIRECTION ( 'NONE',  ( 0.000000000000000000, 0.000000000000000000, 1.000000000000000000 ) ) ;
#266 = ORIENTED_EDGE ( 'NONE', *, *, #188, .T. ) ;
#267 = APPLICATION_PROTOCOL_DEFINITION ( 'international standard', 'config_control_design', 1994, #192 ) ;
#268 = EDGE_CURVE ( 'NONE', #290, #184, #85, .T. ) ;
#269 = ADVANCED_FACE ( 'NONE', ( #34 ), #140, .T. ) ;
#270 = PRODUCT ( '4ff0', '4ff0', '', ( #190 ) ) ;
#271 = CIRCLE ( 'NONE', #111, 9.000000000000000000 ) ;
#272 = PERSON ( 'NEURÈENÝ', 'NEURÈENÝ', 'NEURÈENÝ', ('NEURÈENÝ'), ('NEURÈENÝ'), ('NEURÈENÝ') ) ;
#273 = CC_DESIGN_APPROVAL ( #66, ( #240 ) ) ;
#274 = DIRECTION ( 'NONE',  ( 0.000000000000000000, 0.000000000000000000, 1.000000000000000000 ) ) ;
#275 = DIRECTION ( 'NONE',  ( -0.000000000000000000, -0.000000000000000000, -1.000000000000000000 ) ) ;
#276 = CC_DESIGN_PERSON_AND_ORGANIZATION_ASSIGNMENT ( #263, #102, ( #46 ) ) ;
#277 = ORIENTED_EDGE ( 'NONE', *, *, #256, .T. ) ;
#278 = DIRECTION ( 'NONE',  ( 1.000000000000000000, 0.000000000000000000, 0.000000000000000000 ) ) ;
#279 = PLANE ( 'NONE',  #251 ) ;
#280 = PERSON_AND_ORGANIZATION_ROLE ( 'creator' ) ;
#281 = CYLINDRICAL_SURFACE ( 'NONE', #8, 9.000000000000000000 ) ;
#282 = DIRECTION ( 'NONE',  ( 1.000000000000000000, 0.000000000000000000, 0.000000000000000000 ) ) ;
#283 = VERTEX_POINT ( 'NONE', #213 ) ;
#284 = DIRECTION ( 'NONE',  ( 0.000000000000000000, 0.000000000000000000, 1.000000000000000000 ) ) ;
#285 = FACE_OUTER_BOUND ( 'NONE', #247, .T. ) ;
#286 = ORIENTED_EDGE ( 'NONE', *, *, #225, .T. ) ;
#287 = CARTESIAN_POINT ( 'NONE',  ( 0.000000000000000000, 0.000000000000000000, 0.000000000000000000 ) ) ;
#288 = APPROVAL ( #15, 'NEURÈENÝ' ) ;
#289 = PERSON_AND_ORGANIZATION_ROLE ( 'creator' ) ;
#290 = VERTEX_POINT ( 'NONE', #23 ) ;
#291 = VECTOR ( 'NONE', #219, 1000.000000000000000 ) ;
#292 = APPROVAL_ROLE ( '' ) ;
#293 = EDGE_CURVE ( 'NONE', #283, #130, #93, .T. ) ;
#294 = CIRCLE ( 'NONE', #45, 6.450000000000000178 ) ;
#295 = AXIS2_PLACEMENT_3D ( 'NONE', #92, #275, #121 ) ;
#296 = EDGE_CURVE ( 'NONE', #162, #217, #10, .T. ) ;
#297 = CARTESIAN_POINT ( 'NONE',  ( 0.000000000000000000, 0.000000000000000000, 0.000000000000000000 ) ) ;
#298 = LINE ( 'NONE', #87, #107 ) ;
#299 = VERTEX_POINT ( 'NONE', #170 ) ;
#300 = DIRECTION ( 'NONE',  ( -1.000000000000000000, 0.000000000000000000, 0.000000000000000000 ) ) ;
#301 = DIRECTION ( 'NONE',  ( 1.224646799147353207E-16, 1.000000000000000000, -0.000000000000000000 ) ) ;
#302 = APPROVAL_ROLE ( '' ) ;
#303 = CYLINDRICAL_SURFACE ( 'NONE', #295, 6.250000000000000000 ) ;
#304 = DIRECTION ( 'NONE',  ( 0.000000000000000000, 0.000000000000000000, 1.000000000000000000 ) ) ;
#305 =( NAMED_UNIT ( * ) SI_UNIT ( $, .STERADIAN. ) SOLID_ANGLE_UNIT ( ) );
#306 = FACE_BOUND ( 'NONE', #49, .T. ) ;
#307 = ORIENTED_EDGE ( 'NONE', *, *, #268, .F. ) ;
ENDSEC;
END-ISO-10303-21;
