ISO-10303-21;
HEADER;
FILE_DESCRIPTION (( 'STEP AP203' ),
    '1' );
FILE_NAME ('ad37.STEP',
    '2022-07-07T09:43:24',
    ( '' ),
    ( '' ),
    'SwSTEP 2.0',
    'SolidWorks 2019',
    '' );
FILE_SCHEMA (( 'CONFIG_CONTROL_DESIGN' ));
ENDSEC;

DATA;
#1 = CARTESIAN_POINT ( 'NONE',  ( 0.000000000000000000, 0.000000000000000000, 7.000000000000000000 ) ) ;
#2 = EDGE_CURVE ( 'NONE', #188, #211, #157, .T. ) ;
#3 = COORDINATED_UNIVERSAL_TIME_OFFSET ( 1, 0, .AHEAD. ) ;
#4 = FACE_OUTER_BOUND ( 'NONE', #41, .T. ) ;
#5 = PLANE ( 'NONE',  #103 ) ;
#6 =( LENGTH_UNIT ( ) NAMED_UNIT ( * ) SI_UNIT ( .MILLI., .METRE. ) );
#7 = CARTESIAN_POINT ( 'NONE',  ( 0.000000000000000000, 0.000000000000000000, 7.000000000000000000 ) ) ;
#8 = DIRECTION ( 'NONE',  ( -0.000000000000000000, -0.000000000000000000, -1.000000000000000000 ) ) ;
#9 = APPROVAL_ROLE ( '' ) ;
#10 = AXIS2_PLACEMENT_3D ( 'NONE', #81, #30, #51 ) ;
#11 = ORIENTED_EDGE ( 'NONE', *, *, #213, .F. ) ;
#12 = ORIENTED_EDGE ( 'NONE', *, *, #179, .T. ) ;
#13 = ORIENTED_EDGE ( 'NONE', *, *, #264, .T. ) ;
#14 = APPROVAL ( #135, 'NEURÈENÝ' ) ;
#15 = DIRECTION ( 'NONE',  ( 1.000000000000000000, 0.000000000000000000, 0.000000000000000000 ) ) ;
#16 = ADVANCED_FACE ( 'NONE', ( #92 ), #144, .T. ) ;
#17 = CLOSED_SHELL ( 'NONE', ( #208, #146, #97, #16, #149, #127, #138, #292, #107 ) ) ;
#18 = VERTEX_POINT ( 'NONE', #148 ) ;
#19 = ORIENTED_EDGE ( 'NONE', *, *, #53, .T. ) ;
#20 = AXIS2_PLACEMENT_3D ( 'NONE', #7, #231, #203 ) ;
#21 = DIRECTION ( 'NONE',  ( -0.000000000000000000, -0.000000000000000000, -1.000000000000000000 ) ) ;
#22 = DIRECTION ( 'NONE',  ( 0.000000000000000000, 0.000000000000000000, 1.000000000000000000 ) ) ;
#23 = CARTESIAN_POINT ( 'NONE',  ( 0.000000000000000000, 0.000000000000000000, 7.000000000000000000 ) ) ;
#24 = EDGE_CURVE ( 'NONE', #70, #18, #125, .T. ) ;
#25 = DATE_AND_TIME ( #244, #220 ) ;
#26 = AXIS2_PLACEMENT_3D ( 'NONE', #248, #35, #180 ) ;
#27 = FACE_OUTER_BOUND ( 'NONE', #68, .T. ) ;
#28 = APPROVAL_PERSON_ORGANIZATION ( #133, #198, #9 ) ;
#29 = DIRECTION ( 'NONE',  ( -0.000000000000000000, -0.000000000000000000, -1.000000000000000000 ) ) ;
#30 = DIRECTION ( 'NONE',  ( 1.224646799147353207E-16, 1.000000000000000000, -0.000000000000000000 ) ) ;
#31 = DIRECTION ( 'NONE',  ( 0.000000000000000000, -1.000000000000000000, 0.000000000000000000 ) ) ;
#32 = PERSON_AND_ORGANIZATION_ROLE ( 'classification_officer' ) ;
#33 = FACE_OUTER_BOUND ( 'NONE', #191, .T. ) ;
#34 = PERSON_AND_ORGANIZATION_ROLE ( 'design_supplier' ) ;
#35 = DIRECTION ( 'NONE',  ( 0.000000000000000000, 0.000000000000000000, 1.000000000000000000 ) ) ;
#36 = CIRCLE ( 'NONE', #72, 9.000000000000000000 ) ;
#37 = PERSON_AND_ORGANIZATION ( #276, #75 ) ;
#38 = DIRECTION ( 'NONE',  ( 1.000000000000000000, 0.000000000000000000, 0.000000000000000000 ) ) ;
#39 = COORDINATED_UNIVERSAL_TIME_OFFSET ( 1, 0, .AHEAD. ) ;
#40 = ORIENTED_EDGE ( 'NONE', *, *, #121, .F. ) ;
#41 = EDGE_LOOP ( 'NONE', ( #43, #304, #118, #11 ) ) ;
#42 = EDGE_CURVE ( 'NONE', #192, #45, #36, .T. ) ;
#43 = ORIENTED_EDGE ( 'NONE', *, *, #2, .F. ) ;
#44 = ORIENTED_EDGE ( 'NONE', *, *, #250, .F. ) ;
#45 = VERTEX_POINT ( 'NONE', #117 ) ;
#46 = CIRCLE ( 'NONE', #20, 6.450000000000000178 ) ;
#47 = CARTESIAN_POINT ( 'NONE',  ( 0.000000000000000000, 0.000000000000000000, 107.0000000000000142 ) ) ;
#48 = CC_DESIGN_PERSON_AND_ORGANIZATION_ASSIGNMENT ( #265, #76, ( #241 ) ) ;
#49 = COORDINATED_UNIVERSAL_TIME_OFFSET ( 1, 0, .AHEAD. ) ;
#50 = DATE_AND_TIME ( #154, #93 ) ;
#51 = DIRECTION ( 'NONE',  ( -1.000000000000000000, 1.224646799147353454E-16, 0.000000000000000000 ) ) ;
#52 = CIRCLE ( 'NONE', #98, 6.250000000000000000 ) ;
#53 = EDGE_CURVE ( 'NONE', #18, #70, #52, .T. ) ;
#54 = CARTESIAN_POINT ( 'NONE',  ( 0.000000000000000000, 0.000000000000000000, 0.000000000000000000 ) ) ;
#55 = APPLICATION_CONTEXT ( 'configuration controlled 3d designs of mechanical parts and assemblies' ) ;
#56 = AXIS2_PLACEMENT_3D ( 'NONE', #225, #294, #275 ) ;
#57 = LOCAL_TIME ( 11, 43, 24.00000000000000000, #189 ) ;
#58 = CARTESIAN_POINT ( 'NONE',  ( -9.000000000000000000, 0.000000000000000000, 7.000000000000000000 ) ) ;
#59 = APPROVAL_STATUS ( 'not_yet_approved' ) ;
#60 = CC_DESIGN_PERSON_AND_ORGANIZATION_ASSIGNMENT ( #207, #32, ( #158 ) ) ;
#61 = CARTESIAN_POINT ( 'NONE',  ( 6.450000000000000178, 0.000000000000000000, 7.199999999999998401 ) ) ;
#62 = DIRECTION ( 'NONE',  ( -0.000000000000000000, -0.000000000000000000, -1.000000000000000000 ) ) ;
#63 = EDGE_LOOP ( 'NONE', ( #285, #305, #12, #13 ) ) ;
#64 = AXIS2_PLACEMENT_3D ( 'NONE', #132, #29, #128 ) ;
#65 = DATE_AND_TIME ( #87, #263 ) ;
#66 = DIRECTION ( 'NONE',  ( -0.000000000000000000, -0.000000000000000000, -1.000000000000000000 ) ) ;
#67 = VERTEX_POINT ( 'NONE', #235 ) ;
#68 = EDGE_LOOP ( 'NONE', ( #145, #190 ) ) ;
#69 = CIRCLE ( 'NONE', #246, 6.250000000000000000 ) ;
#70 = VERTEX_POINT ( 'NONE', #89 ) ;
#71 = DIRECTION ( 'NONE',  ( 0.000000000000000000, 0.000000000000000000, 1.000000000000000000 ) ) ;
#72 = AXIS2_PLACEMENT_3D ( 'NONE', #256, #115, #38 ) ;
#73 = DIRECTION ( 'NONE',  ( 0.000000000000000000, 0.000000000000000000, 1.000000000000000000 ) ) ;
#74 = APPLICATION_CONTEXT ( 'configuration controlled 3d designs of mechanical parts and assemblies' ) ;
#75 = ORGANIZATION ( 'NEURÈENÝ', 'NEURÈENÝ', '' ) ;
#76 = PERSON_AND_ORGANIZATION_ROLE ( 'design_owner' ) ;
#77 = CARTESIAN_POINT ( 'NONE',  ( 0.000000000000000000, 0.000000000000000000, 107.0000000000000142 ) ) ;
#78 = AXIS2_PLACEMENT_3D ( 'NONE', #283, #66, #217 ) ;
#79 = DIRECTION ( 'NONE',  ( 1.000000000000000000, 0.000000000000000000, -0.000000000000000000 ) ) ;
#80 = FACE_OUTER_BOUND ( 'NONE', #209, .T. ) ;
#81 = CARTESIAN_POINT ( 'NONE',  ( -6.450000000000000178, 7.898971854500428692E-16, 7.199999999999998401 ) ) ;
#82 = CC_DESIGN_PERSON_AND_ORGANIZATION_ASSIGNMENT ( #222, #123, ( #176 ) ) ;
#83 = EDGE_CURVE ( 'NONE', #259, #67, #136, .T. ) ;
#84 = TOROIDAL_SURFACE ( 'NONE', #26, 6.450000000000000178, 0.2000000000000000111 ) ;
#85 = FACE_BOUND ( 'NONE', #142, .T. ) ;
#86 = DIRECTION ( 'NONE',  ( 0.000000000000000000, 0.000000000000000000, 1.000000000000000000 ) ) ;
#87 = CALENDAR_DATE ( 2022, 7, 7 ) ;
#88 = CARTESIAN_POINT ( 'NONE',  ( 0.000000000000000000, 0.000000000000000000, 7.199999999999998401 ) ) ;
#89 = CARTESIAN_POINT ( 'NONE',  ( 6.250000000000000000, 7.654042494670957606E-16, 7.199999999999998401 ) ) ;
#90 = ORIENTED_EDGE ( 'NONE', *, *, #24, .F. ) ;
#91 = CIRCLE ( 'NONE', #129, 6.450000000000000178 ) ;
#92 = FACE_OUTER_BOUND ( 'NONE', #63, .T. ) ;
#93 = LOCAL_TIME ( 11, 43, 24.00000000000000000, #3 ) ;
#94 = MANIFOLD_SOLID_BREP ( 'Zaoblit1', #17 ) ;
#95 = DIRECTION ( 'NONE',  ( 1.000000000000000000, 0.000000000000000000, 0.000000000000000000 ) ) ;
#96 = ORIENTED_EDGE ( 'NONE', *, *, #272, .T. ) ;
#97 = ADVANCED_FACE ( 'NONE', ( #106 ), #251, .T. ) ;
#98 = AXIS2_PLACEMENT_3D ( 'NONE', #212, #141, #258 ) ;
#99 = CARTESIAN_POINT ( 'NONE',  ( 9.000000000000000000, 1.102182119232617714E-15, 0.000000000000000000 ) ) ;
#100 = DIRECTION ( 'NONE',  ( 1.000000000000000000, 0.000000000000000000, 0.000000000000000000 ) ) ;
#101 = DIRECTION ( 'NONE',  ( 1.000000000000000000, 0.000000000000000000, 0.000000000000000000 ) ) ;
#102 = EDGE_CURVE ( 'NONE', #70, #239, #182, .T. ) ;
#103 = AXIS2_PLACEMENT_3D ( 'NONE', #159, #86, #79 ) ;
#104 = CARTESIAN_POINT ( 'NONE',  ( 9.000000000000000000, 1.102182119232617714E-15, 7.000000000000000000 ) ) ;
#105 = CC_DESIGN_PERSON_AND_ORGANIZATION_ASSIGNMENT ( #37, #34, ( #197 ) ) ;
#106 = FACE_OUTER_BOUND ( 'NONE', #215, .T. ) ;
#107 = ADVANCED_FACE ( 'NONE', ( #80 ), #266, .F. ) ;
#108 = DIRECTION ( 'NONE',  ( 0.000000000000000000, 0.000000000000000000, 1.000000000000000000 ) ) ;
#109 = LINE ( 'NONE', #58, #221 ) ;
#110 = ORIENTED_EDGE ( 'NONE', *, *, #252, .T. ) ;
#111 = AXIS2_PLACEMENT_3D ( 'NONE', #245, #73, #270 ) ;
#112 = DATE_AND_TIME ( #165, #57 ) ;
#113 = ORIENTED_EDGE ( 'NONE', *, *, #243, .T. ) ;
#114 = ORIENTED_EDGE ( 'NONE', *, *, #53, .F. ) ;
#115 = DIRECTION ( 'NONE',  ( 0.000000000000000000, 0.000000000000000000, 1.000000000000000000 ) ) ;
#116 = AXIS2_PLACEMENT_3D ( 'NONE', #61, #31, #137 ) ;
#117 = CARTESIAN_POINT ( 'NONE',  ( -9.000000000000000000, 0.000000000000000000, 7.000000000000000000 ) ) ;
#118 = ORIENTED_EDGE ( 'NONE', *, *, #24, .T. ) ;
#119 = CC_DESIGN_PERSON_AND_ORGANIZATION_ASSIGNMENT ( #254, #279, ( #197 ) ) ;
#120 = VERTEX_POINT ( 'NONE', #271 ) ;
#121 = EDGE_CURVE ( 'NONE', #239, #120, #46, .T. ) ;
#122 = CIRCLE ( 'NONE', #111, 9.000000000000000000 ) ;
#123 = PERSON_AND_ORGANIZATION_ROLE ( 'creator' ) ;
#124 = DIRECTION ( 'NONE',  ( 1.000000000000000000, 0.000000000000000000, 0.000000000000000000 ) ) ;
#125 = CIRCLE ( 'NONE', #214, 6.250000000000000000 ) ;
#126 = DATE_TIME_ROLE ( 'creation_date' ) ;
#127 = ADVANCED_FACE ( 'NONE', ( #27 ), #163, .F. ) ;
#128 = DIRECTION ( 'NONE',  ( -1.000000000000000000, 0.000000000000000000, 0.000000000000000000 ) ) ;
#129 = AXIS2_PLACEMENT_3D ( 'NONE', #23, #21, #101 ) ;
#130 = CC_DESIGN_SECURITY_CLASSIFICATION ( #158, ( #197 ) ) ;
#131 = CARTESIAN_POINT ( 'NONE',  ( 0.000000000000000000, 0.000000000000000000, 7.199999999999998401 ) ) ;
#132 = CARTESIAN_POINT ( 'NONE',  ( 0.000000000000000000, 0.000000000000000000, 7.000000000000000000 ) ) ;
#133 = PERSON_AND_ORGANIZATION ( #276, #75 ) ;
#134 = DIRECTION ( 'NONE',  ( -0.000000000000000000, -0.000000000000000000, -1.000000000000000000 ) ) ;
#135 = APPROVAL_STATUS ( 'not_yet_approved' ) ;
#136 = CIRCLE ( 'NONE', #153, 9.000000000000000000 ) ;
#137 = DIRECTION ( 'NONE',  ( 0.000000000000000000, 0.000000000000000000, -1.000000000000000000 ) ) ;
#138 = ADVANCED_FACE ( 'NONE', ( #233 ), #255, .T. ) ;
#139 = APPROVAL_PERSON_ORGANIZATION ( #140, #14, #234 ) ;
#140 = PERSON_AND_ORGANIZATION ( #276, #75 ) ;
#141 = DIRECTION ( 'NONE',  ( 0.000000000000000000, 0.000000000000000000, 1.000000000000000000 ) ) ;
#142 = EDGE_LOOP ( 'NONE', ( #277, #238 ) ) ;
#143 = ORIENTED_EDGE ( 'NONE', *, *, #2, .T. ) ;
#144 = CYLINDRICAL_SURFACE ( 'NONE', #78, 9.000000000000000000 ) ;
#145 = ORIENTED_EDGE ( 'NONE', *, *, #264, .F. ) ;
#146 = ADVANCED_FACE ( 'NONE', ( #4 ), #184, .T. ) ;
#147 = AXIS2_PLACEMENT_3D ( 'NONE', #177, #269, #287 ) ;
#148 = CARTESIAN_POINT ( 'NONE',  ( -6.250000000000000000, 0.000000000000000000, 7.199999999999998401 ) ) ;
#149 = ADVANCED_FACE ( 'NONE', ( #85, #33 ), #5, .T. ) ;
#150 = CC_DESIGN_APPROVAL ( #14, ( #158 ) ) ;
#151 = FACE_OUTER_BOUND ( 'NONE', #237, .T. ) ;
#152 = EDGE_CURVE ( 'NONE', #192, #259, #293, .T. ) ;
#153 = AXIS2_PLACEMENT_3D ( 'NONE', #280, #257, #302 ) ;
#154 = CALENDAR_DATE ( 2022, 7, 7 ) ;
#155 =( NAMED_UNIT ( * ) SI_UNIT ( $, .STERADIAN. ) SOLID_ANGLE_UNIT ( ) );
#156 = APPROVAL_ROLE ( '' ) ;
#157 = CIRCLE ( 'NONE', #303, 6.250000000000000000 ) ;
#158 = SECURITY_CLASSIFICATION ( '', '', #298 ) ;
#159 = CARTESIAN_POINT ( 'NONE',  ( 0.000000000000000000, 0.000000000000000000, 7.000000000000000000 ) ) ;
#160 = DIRECTION ( 'NONE',  ( 0.000000000000000000, 0.000000000000000000, 1.000000000000000000 ) ) ;
#161 = DIRECTION ( 'NONE',  ( -0.000000000000000000, -0.000000000000000000, -1.000000000000000000 ) ) ;
#162 = CALENDAR_DATE ( 2022, 7, 7 ) ;
#163 = PLANE ( 'NONE',  #289 ) ;
#164 = CARTESIAN_POINT ( 'NONE',  ( -6.250000000000000000, 0.000000000000000000, 107.0000000000000142 ) ) ;
#165 = CALENDAR_DATE ( 2022, 7, 7 ) ;
#166 = DIRECTION ( 'NONE',  ( 0.000000000000000000, 0.000000000000000000, 1.000000000000000000 ) ) ;
#167 = ORIENTED_EDGE ( 'NONE', *, *, #243, .F. ) ;
#168 = COORDINATED_UNIVERSAL_TIME_OFFSET ( 1, 0, .AHEAD. ) ;
#169 = ORIENTED_EDGE ( 'NONE', *, *, #152, .T. ) ;
#170 = CC_DESIGN_APPROVAL ( #198, ( #197 ) ) ;
#171 = EDGE_LOOP ( 'NONE', ( #194, #167, #260, #19 ) ) ;
#172 = EDGE_CURVE ( 'NONE', #188, #70, #273, .T. ) ;
#173 = ORIENTED_EDGE ( 'NONE', *, *, #102, .T. ) ;
#174 = ADVANCED_BREP_SHAPE_REPRESENTATION ( 'ad37', ( #94, #147 ), #274 ) ;
#175 = MECHANICAL_CONTEXT ( 'NONE', #55, 'mechanical' ) ;
#176 = PRODUCT_DEFINITION ( 'NEZNÁMÝ', '', #197, #296 ) ;
#177 = CARTESIAN_POINT ( 'NONE',  ( 0.000000000000000000, 0.000000000000000000, 0.000000000000000000 ) ) ;
#178 = PLANE ( 'NONE',  #236 ) ;
#179 = EDGE_CURVE ( 'NONE', #45, #67, #109, .T. ) ;
#180 = DIRECTION ( 'NONE',  ( 1.000000000000000000, 0.000000000000000000, 0.000000000000000000 ) ) ;
#181 = DIRECTION ( 'NONE',  ( 1.000000000000000000, 0.000000000000000000, 0.000000000000000000 ) ) ;
#182 = CIRCLE ( 'NONE', #116, 0.1999999999999996503 ) ;
#183 = LOCAL_TIME ( 11, 43, 24.00000000000000000, #39 ) ;
#184 = CYLINDRICAL_SURFACE ( 'NONE', #56, 6.250000000000000000 ) ;
#185 = DATE_TIME_ROLE ( 'classification_date' ) ;
#186 = FACE_OUTER_BOUND ( 'NONE', #278, .T. ) ;
#187 = ORIENTED_EDGE ( 'NONE', *, *, #42, .F. ) ;
#188 = VERTEX_POINT ( 'NONE', #297 ) ;
#189 = COORDINATED_UNIVERSAL_TIME_OFFSET ( 1, 0, .AHEAD. ) ;
#190 = ORIENTED_EDGE ( 'NONE', *, *, #83, .F. ) ;
#191 = EDGE_LOOP ( 'NONE', ( #110, #216 ) ) ;
#192 = VERTEX_POINT ( 'NONE', #104 ) ;
#193 = DIRECTION ( 'NONE',  ( 0.000000000000000000, 0.000000000000000000, 1.000000000000000000 ) ) ;
#194 = ORIENTED_EDGE ( 'NONE', *, *, #172, .F. ) ;
#195 = ORIENTED_EDGE ( 'NONE', *, *, #83, .T. ) ;
#196 = APPROVAL_STATUS ( 'not_yet_approved' ) ;
#197 = PRODUCT_DEFINITION_FORMATION_WITH_SPECIFIED_SOURCE ( 'LIBOVOLNÝ', '', #241, .NOT_KNOWN. ) ;
#198 = APPROVAL ( #59, 'NEURÈENÝ' ) ;
#199 = CIRCLE ( 'NONE', #247, 9.000000000000000000 ) ;
#200 =( NAMED_UNIT ( * ) PLANE_ANGLE_UNIT ( ) SI_UNIT ( $, .RADIAN. ) );
#201 = APPLICATION_PROTOCOL_DEFINITION ( 'international standard', 'config_control_design', 1994, #74 ) ;
#202 = CARTESIAN_POINT ( 'NONE',  ( 6.250000000000000000, 7.654042494670957606E-16, 107.0000000000000142 ) ) ;
#203 = DIRECTION ( 'NONE',  ( 1.000000000000000000, 0.000000000000000000, 0.000000000000000000 ) ) ;
#204 = DIRECTION ( 'NONE',  ( 1.000000000000000000, 0.000000000000000000, -0.000000000000000000 ) ) ;
#205 = PRODUCT_RELATED_PRODUCT_CATEGORY ( 'detail', '', ( #241 ) ) ;
#206 = CARTESIAN_POINT ( 'NONE',  ( 0.000000000000000000, 0.000000000000000000, 107.0000000000000142 ) ) ;
#207 = PERSON_AND_ORGANIZATION ( #276, #75 ) ;
#208 = ADVANCED_FACE ( 'NONE', ( #186 ), #84, .F. ) ;
#209 = EDGE_LOOP ( 'NONE', ( #240, #90, #173, #44 ) ) ;
#210 = APPROVAL_DATE_TIME ( #112, #198 ) ;
#211 = VERTEX_POINT ( 'NONE', #164 ) ;
#212 = CARTESIAN_POINT ( 'NONE',  ( 0.000000000000000000, 0.000000000000000000, 7.199999999999998401 ) ) ;
#213 = EDGE_CURVE ( 'NONE', #211, #18, #291, .T. ) ;
#214 = AXIS2_PLACEMENT_3D ( 'NONE', #88, #166, #15 ) ;
#215 = EDGE_LOOP ( 'NONE', ( #187, #169, #195, #301 ) ) ;
#216 = ORIENTED_EDGE ( 'NONE', *, *, #42, .T. ) ;
#217 = DIRECTION ( 'NONE',  ( -1.000000000000000000, 0.000000000000000000, 0.000000000000000000 ) ) ;
#218 = AXIS2_PLACEMENT_3D ( 'NONE', #131, #228, #181 ) ;
#219 = CARTESIAN_POINT ( 'NONE',  ( 6.450000000000000178, 0.000000000000000000, 6.999999999999999112 ) ) ;
#220 = LOCAL_TIME ( 11, 43, 24.00000000000000000, #49 ) ;
#221 = VECTOR ( 'NONE', #161, 1000.000000000000000 ) ;
#222 = PERSON_AND_ORGANIZATION ( #276, #75 ) ;
#223 = AXIS2_PLACEMENT_3D ( 'NONE', #206, #62, #253 ) ;
#224 = APPROVAL_PERSON_ORGANIZATION ( #307, #284, #156 ) ;
#225 = CARTESIAN_POINT ( 'NONE',  ( 0.000000000000000000, 0.000000000000000000, 107.0000000000000142 ) ) ;
#226 = DIRECTION ( 'NONE',  ( -0.000000000000000000, -0.000000000000000000, -1.000000000000000000 ) ) ;
#227 = CC_DESIGN_DATE_AND_TIME_ASSIGNMENT ( #25, #126, ( #176 ) ) ;
#228 = DIRECTION ( 'NONE',  ( 0.000000000000000000, 0.000000000000000000, 1.000000000000000000 ) ) ;
#229 = SHAPE_DEFINITION_REPRESENTATION ( #306, #174 ) ;
#230 = UNCERTAINTY_MEASURE_WITH_UNIT (LENGTH_MEASURE( 1.000000000000000082E-05 ), #6, 'distance_accuracy_value', 'NONE');
#231 = DIRECTION ( 'NONE',  ( -0.000000000000000000, -0.000000000000000000, -1.000000000000000000 ) ) ;
#232 = APPROVAL_DATE_TIME ( #65, #14 ) ;
#233 = FACE_OUTER_BOUND ( 'NONE', #171, .T. ) ;
#234 = APPROVAL_ROLE ( '' ) ;
#235 = CARTESIAN_POINT ( 'NONE',  ( -9.000000000000000000, 0.000000000000000000, 0.000000000000000000 ) ) ;
#236 = AXIS2_PLACEMENT_3D ( 'NONE', #47, #160, #242 ) ;
#237 = EDGE_LOOP ( 'NONE', ( #113, #143 ) ) ;
#238 = ORIENTED_EDGE ( 'NONE', *, *, #250, .T. ) ;
#239 = VERTEX_POINT ( 'NONE', #219 ) ;
#240 = ORIENTED_EDGE ( 'NONE', *, *, #272, .F. ) ;
#241 = PRODUCT ( 'ad37', 'ad37', '', ( #175 ) ) ;
#242 = DIRECTION ( 'NONE',  ( 1.000000000000000000, 0.000000000000000000, -0.000000000000000000 ) ) ;
#243 = EDGE_CURVE ( 'NONE', #211, #188, #69, .T. ) ;
#244 = CALENDAR_DATE ( 2022, 7, 7 ) ;
#245 = CARTESIAN_POINT ( 'NONE',  ( 0.000000000000000000, 0.000000000000000000, 0.000000000000000000 ) ) ;
#246 = AXIS2_PLACEMENT_3D ( 'NONE', #77, #22, #124 ) ;
#247 = AXIS2_PLACEMENT_3D ( 'NONE', #1, #71, #100 ) ;
#248 = CARTESIAN_POINT ( 'NONE',  ( 0.000000000000000000, 0.000000000000000000, 7.199999999999998401 ) ) ;
#249 = CARTESIAN_POINT ( 'NONE',  ( 9.000000000000000000, 1.102182119232617714E-15, 7.000000000000000000 ) ) ;
#250 = EDGE_CURVE ( 'NONE', #120, #239, #91, .T. ) ;
#251 = CYLINDRICAL_SURFACE ( 'NONE', #64, 9.000000000000000000 ) ;
#252 = EDGE_CURVE ( 'NONE', #45, #192, #199, .T. ) ;
#253 = DIRECTION ( 'NONE',  ( -1.000000000000000000, 0.000000000000000000, 0.000000000000000000 ) ) ;
#254 = PERSON_AND_ORGANIZATION ( #276, #75 ) ;
#255 = CYLINDRICAL_SURFACE ( 'NONE', #223, 6.250000000000000000 ) ;
#256 = CARTESIAN_POINT ( 'NONE',  ( 0.000000000000000000, 0.000000000000000000, 7.000000000000000000 ) ) ;
#257 = DIRECTION ( 'NONE',  ( 0.000000000000000000, 0.000000000000000000, 1.000000000000000000 ) ) ;
#258 = DIRECTION ( 'NONE',  ( 1.000000000000000000, 0.000000000000000000, 0.000000000000000000 ) ) ;
#259 = VERTEX_POINT ( 'NONE', #99 ) ;
#260 = ORIENTED_EDGE ( 'NONE', *, *, #213, .T. ) ;
#261 = VECTOR ( 'NONE', #8, 1000.000000000000000 ) ;
#262 = CC_DESIGN_DATE_AND_TIME_ASSIGNMENT ( #300, #185, ( #158 ) ) ;
#263 = LOCAL_TIME ( 11, 43, 24.00000000000000000, #168 ) ;
#264 = EDGE_CURVE ( 'NONE', #67, #259, #122, .T. ) ;
#265 = PERSON_AND_ORGANIZATION ( #276, #75 ) ;
#266 = TOROIDAL_SURFACE ( 'NONE', #218, 6.450000000000000178, 0.2000000000000000111 ) ;
#267 = CC_DESIGN_APPROVAL ( #284, ( #176 ) ) ;
#268 = APPLICATION_PROTOCOL_DEFINITION ( 'international standard', 'config_control_design', 1994, #55 ) ;
#269 = DIRECTION ( 'NONE',  ( 0.000000000000000000, 0.000000000000000000, 1.000000000000000000 ) ) ;
#270 = DIRECTION ( 'NONE',  ( 1.000000000000000000, 0.000000000000000000, 0.000000000000000000 ) ) ;
#271 = CARTESIAN_POINT ( 'NONE',  ( -6.450000000000000178, 7.898971854500428692E-16, 6.999999999999999112 ) ) ;
#272 = EDGE_CURVE ( 'NONE', #18, #120, #286, .T. ) ;
#273 = LINE ( 'NONE', #202, #261 ) ;
#274 =( GEOMETRIC_REPRESENTATION_CONTEXT ( 3 ) GLOBAL_UNCERTAINTY_ASSIGNED_CONTEXT ( ( #230 ) ) GLOBAL_UNIT_ASSIGNED_CONTEXT ( ( #6, #200, #155 ) ) REPRESENTATION_CONTEXT ( 'NONE', 'WORKASPACE' ) );
#275 = DIRECTION ( 'NONE',  ( -1.000000000000000000, 0.000000000000000000, 0.000000000000000000 ) ) ;
#276 = PERSON ( 'NEURÈENÝ', 'NEURÈENÝ', 'NEURÈENÝ', ('NEURÈENÝ'), ('NEURÈENÝ'), ('NEURÈENÝ') ) ;
#277 = ORIENTED_EDGE ( 'NONE', *, *, #121, .T. ) ;
#278 = EDGE_LOOP ( 'NONE', ( #114, #96, #40, #282 ) ) ;
#279 = PERSON_AND_ORGANIZATION_ROLE ( 'creator' ) ;
#280 = CARTESIAN_POINT ( 'NONE',  ( 0.000000000000000000, 0.000000000000000000, 0.000000000000000000 ) ) ;
#281 = VECTOR ( 'NONE', #226, 1000.000000000000000 ) ;
#282 = ORIENTED_EDGE ( 'NONE', *, *, #102, .F. ) ;
#283 = CARTESIAN_POINT ( 'NONE',  ( 0.000000000000000000, 0.000000000000000000, 7.000000000000000000 ) ) ;
#284 = APPROVAL ( #196, 'NEURÈENÝ' ) ;
#285 = ORIENTED_EDGE ( 'NONE', *, *, #152, .F. ) ;
#286 = CIRCLE ( 'NONE', #10, 0.1999999999999996503 ) ;
#287 = DIRECTION ( 'NONE',  ( 1.000000000000000000, 0.000000000000000000, 0.000000000000000000 ) ) ;
#288 = APPROVAL_DATE_TIME ( #50, #284 ) ;
#289 = AXIS2_PLACEMENT_3D ( 'NONE', #54, #108, #204 ) ;
#290 = CARTESIAN_POINT ( 'NONE',  ( -6.250000000000000000, 0.000000000000000000, 107.0000000000000142 ) ) ;
#291 = LINE ( 'NONE', #290, #281 ) ;
#292 = ADVANCED_FACE ( 'NONE', ( #151 ), #178, .T. ) ;
#293 = LINE ( 'NONE', #249, #295 ) ;
#294 = DIRECTION ( 'NONE',  ( -0.000000000000000000, -0.000000000000000000, -1.000000000000000000 ) ) ;
#295 = VECTOR ( 'NONE', #134, 1000.000000000000000 ) ;
#296 = DESIGN_CONTEXT ( 'detailed design', #74, 'design' ) ;
#297 = CARTESIAN_POINT ( 'NONE',  ( 6.250000000000000000, 7.654042494670957606E-16, 107.0000000000000142 ) ) ;
#298 = SECURITY_CLASSIFICATION_LEVEL ( 'unclassified' ) ;
#299 = CARTESIAN_POINT ( 'NONE',  ( 0.000000000000000000, 0.000000000000000000, 107.0000000000000142 ) ) ;
#300 = DATE_AND_TIME ( #162, #183 ) ;
#301 = ORIENTED_EDGE ( 'NONE', *, *, #179, .F. ) ;
#302 = DIRECTION ( 'NONE',  ( 1.000000000000000000, 0.000000000000000000, 0.000000000000000000 ) ) ;
#303 = AXIS2_PLACEMENT_3D ( 'NONE', #299, #193, #95 ) ;
#304 = ORIENTED_EDGE ( 'NONE', *, *, #172, .T. ) ;
#305 = ORIENTED_EDGE ( 'NONE', *, *, #252, .F. ) ;
#306 = PRODUCT_DEFINITION_SHAPE ( 'NONE', 'NONE',  #176 ) ;
#307 = PERSON_AND_ORGANIZATION ( #276, #75 ) ;
ENDSEC;
END-ISO-10303-21;
