ISO-10303-21;
HEADER;
FILE_DESCRIPTION (( 'STEP AP203' ),
    '1' );
FILE_NAME ('d4bd.STEP',
    '2023-02-12T11:36:40',
    ( '' ),
    ( '' ),
    'SwSTEP 2.0',
    'SolidWorks 2019',
    '' );
FILE_SCHEMA (( 'CONFIG_CONTROL_DESIGN' ));
ENDSEC;

DATA;
#1 = DIRECTION ( 'NONE',  ( 0.000000000000000000, 0.000000000000000000, 1.000000000000000000 ) ) ;
#2 = ADVANCED_BREP_SHAPE_REPRESENTATION ( 'd4bd', ( #58, #35 ), #131 ) ;
#3 = CARTESIAN_POINT ( 'NONE',  ( 0.000000000000000000, 0.000000000000000000, 5.000000000000000000 ) ) ;
#4 = EDGE_LOOP ( 'NONE', ( #207, #96 ) ) ;
#5 = CARTESIAN_POINT ( 'NONE',  ( 0.000000000000000000, 0.000000000000000000, 0.000000000000000000 ) ) ;
#6 = CARTESIAN_POINT ( 'NONE',  ( 7.000000000000000000, 8.572527594031473190E-16, 5.000000000000000000 ) ) ;
#7 = ORGANIZATION ( 'NEURÈENÝ', 'NEURÈENÝ', '' ) ;
#8 = PERSON_AND_ORGANIZATION_ROLE ( 'design_supplier' ) ;
#9 = LOCAL_TIME ( 12, 36, 40.00000000000000000, #28 ) ;
#10 = ORIENTED_EDGE ( 'NONE', *, *, #173, .T. ) ;
#11 = EDGE_CURVE ( 'NONE', #136, #17, #249, .T. ) ;
#12 = PERSON_AND_ORGANIZATION_ROLE ( 'classification_officer' ) ;
#13 = DIRECTION ( 'NONE',  ( 0.000000000000000000, 0.000000000000000000, 1.000000000000000000 ) ) ;
#14 = ORIENTED_EDGE ( 'NONE', *, *, #11, .T. ) ;
#15 = CC_DESIGN_DATE_AND_TIME_ASSIGNMENT ( #149, #184, ( #194 ) ) ;
#16 = APPLICATION_PROTOCOL_DEFINITION ( 'international standard', 'config_control_design', 1994, #234 ) ;
#17 = VERTEX_POINT ( 'NONE', #124 ) ;
#18 = PRODUCT ( 'd4bd', 'd4bd', '', ( #70 ) ) ;
#19 = AXIS2_PLACEMENT_3D ( 'NONE', #117, #82, #63 ) ;
#20 = EDGE_CURVE ( 'NONE', #193, #126, #181, .T. ) ;
#21 = APPLICATION_CONTEXT ( 'configuration controlled 3d designs of mechanical parts and assemblies' ) ;
#22 = CC_DESIGN_APPROVAL ( #204, ( #49 ) ) ;
#23 = CARTESIAN_POINT ( 'NONE',  ( -4.250000000000000000, 0.000000000000000000, 1000.000000000000000 ) ) ;
#24 = DIRECTION ( 'NONE',  ( 0.000000000000000000, 0.000000000000000000, 1.000000000000000000 ) ) ;
#25 = AXIS2_PLACEMENT_3D ( 'NONE', #85, #102, #155 ) ;
#26 = PLANE ( 'NONE',  #38 ) ;
#27 = CIRCLE ( 'NONE', #238, 7.000000000000000000 ) ;
#28 = COORDINATED_UNIVERSAL_TIME_OFFSET ( 1, 0, .AHEAD. ) ;
#29 = VERTEX_POINT ( 'NONE', #220 ) ;
#30 = APPROVAL_DATE_TIME ( #205, #143 ) ;
#31 = APPROVAL_ROLE ( '' ) ;
#32 = CC_DESIGN_PERSON_AND_ORGANIZATION_ASSIGNMENT ( #170, #218, ( #194 ) ) ;
#33 = DIRECTION ( 'NONE',  ( -0.000000000000000000, -0.000000000000000000, -1.000000000000000000 ) ) ;
#34 = SECURITY_CLASSIFICATION_LEVEL ( 'unclassified' ) ;
#35 = AXIS2_PLACEMENT_3D ( 'NONE', #248, #192, #245 ) ;
#36 = CARTESIAN_POINT ( 'NONE',  ( 0.000000000000000000, 0.000000000000000000, 0.000000000000000000 ) ) ;
#37 = ORIENTED_EDGE ( 'NONE', *, *, #221, .T. ) ;
#38 = AXIS2_PLACEMENT_3D ( 'NONE', #231, #1, #64 ) ;
#39 = VECTOR ( 'NONE', #33, 1000.000000000000000 ) ;
#40 = CARTESIAN_POINT ( 'NONE',  ( -7.000000000000000000, 0.000000000000000000, 5.000000000000000000 ) ) ;
#41 = DIRECTION ( 'NONE',  ( 0.000000000000000000, 0.000000000000000000, 1.000000000000000000 ) ) ;
#42 = EDGE_CURVE ( 'NONE', #210, #223, #27, .T. ) ;
#43 = CARTESIAN_POINT ( 'NONE',  ( 7.000000000000000000, 8.572527594031473190E-16, 0.000000000000000000 ) ) ;
#44 = CARTESIAN_POINT ( 'NONE',  ( 0.000000000000000000, 0.000000000000000000, 0.000000000000000000 ) ) ;
#45 = DIRECTION ( 'NONE',  ( -1.000000000000000000, 0.000000000000000000, 0.000000000000000000 ) ) ;
#46 = APPROVAL_ROLE ( '' ) ;
#47 = DATE_TIME_ROLE ( 'classification_date' ) ;
#48 = ORIENTED_EDGE ( 'NONE', *, *, #226, .F. ) ;
#49 = PRODUCT_DEFINITION_FORMATION_WITH_SPECIFIED_SOURCE ( 'LIBOVOLNÝ', '', #18, .NOT_KNOWN. ) ;
#50 = COORDINATED_UNIVERSAL_TIME_OFFSET ( 1, 0, .AHEAD. ) ;
#51 = ORIENTED_EDGE ( 'NONE', *, *, #162, .F. ) ;
#52 = PERSON_AND_ORGANIZATION ( #229, #7 ) ;
#53 = FACE_OUTER_BOUND ( 'NONE', #244, .T. ) ;
#54 = APPROVAL_STATUS ( 'not_yet_approved' ) ;
#55 = ORIENTED_EDGE ( 'NONE', *, *, #42, .F. ) ;
#56 = AXIS2_PLACEMENT_3D ( 'NONE', #118, #24, #100 ) ;
#57 = DIRECTION ( 'NONE',  ( 0.000000000000000000, 0.000000000000000000, 1.000000000000000000 ) ) ;
#58 = MANIFOLD_SOLID_BREP ( 'Pøidat vysunutím3', #88 ) ;
#59 = APPROVAL ( #73, 'NEURÈENÝ' ) ;
#60 = DIRECTION ( 'NONE',  ( 0.000000000000000000, 0.000000000000000000, 1.000000000000000000 ) ) ;
#61 = EDGE_CURVE ( 'NONE', #183, #17, #199, .T. ) ;
#62 = CIRCLE ( 'NONE', #66, 7.000000000000000000 ) ;
#63 = DIRECTION ( 'NONE',  ( 1.000000000000000000, 0.000000000000000000, -0.000000000000000000 ) ) ;
#64 = DIRECTION ( 'NONE',  ( 1.000000000000000000, 0.000000000000000000, -0.000000000000000000 ) ) ;
#65 = EDGE_LOOP ( 'NONE', ( #84, #185 ) ) ;
#66 = AXIS2_PLACEMENT_3D ( 'NONE', #116, #198, #98 ) ;
#67 = DIRECTION ( 'NONE',  ( -0.000000000000000000, -0.000000000000000000, -1.000000000000000000 ) ) ;
#68 = CALENDAR_DATE ( 2023, 12, 2 ) ;
#69 = ORIENTED_EDGE ( 'NONE', *, *, #221, .F. ) ;
#70 = MECHANICAL_CONTEXT ( 'NONE', #234, 'mechanical' ) ;
#71 = CARTESIAN_POINT ( 'NONE',  ( 0.000000000000000000, 0.000000000000000000, 5.000000000000000000 ) ) ;
#72 = ORIENTED_EDGE ( 'NONE', *, *, #42, .T. ) ;
#73 = APPROVAL_STATUS ( 'not_yet_approved' ) ;
#74 = CALENDAR_DATE ( 2023, 12, 2 ) ;
#75 = EDGE_LOOP ( 'NONE', ( #246, #147, #37, #105 ) ) ;
#76 = ADVANCED_FACE ( 'NONE', ( #53 ), #127, .T. ) ;
#77 = VECTOR ( 'NONE', #114, 1000.000000000000000 ) ;
#78 = CYLINDRICAL_SURFACE ( 'NONE', #153, 4.250000000000000000 ) ;
#79 = ADVANCED_FACE ( 'NONE', ( #172 ), #78, .T. ) ;
#80 = CC_DESIGN_APPROVAL ( #143, ( #132 ) ) ;
#81 = UNCERTAINTY_MEASURE_WITH_UNIT (LENGTH_MEASURE( 1.000000000000000082E-05 ), #235, 'distance_accuracy_value', 'NONE');
#82 = DIRECTION ( 'NONE',  ( 0.000000000000000000, 0.000000000000000000, 1.000000000000000000 ) ) ;
#83 = LINE ( 'NONE', #23, #195 ) ;
#84 = ORIENTED_EDGE ( 'NONE', *, *, #251, .T. ) ;
#85 = CARTESIAN_POINT ( 'NONE',  ( 0.000000000000000000, 0.000000000000000000, 5.000000000000000000 ) ) ;
#86 = CARTESIAN_POINT ( 'NONE',  ( -4.250000000000000000, 0.000000000000000000, 5.000000000000000000 ) ) ;
#87 = ADVANCED_FACE ( 'NONE', ( #250 ), #225, .T. ) ;
#88 = CLOSED_SHELL ( 'NONE', ( #79, #76, #212, #168, #93, #130, #87 ) ) ;
#89 = CARTESIAN_POINT ( 'NONE',  ( 0.000000000000000000, 0.000000000000000000, 1000.000000000000000 ) ) ;
#90 = PERSON_AND_ORGANIZATION ( #229, #7 ) ;
#91 = ORIENTED_EDGE ( 'NONE', *, *, #226, .T. ) ;
#92 = APPROVAL_DATE_TIME ( #95, #59 ) ;
#93 = ADVANCED_FACE ( 'NONE', ( #134 ), #178, .F. ) ;
#94 = APPROVAL_ROLE ( '' ) ;
#95 = DATE_AND_TIME ( #188, #139 ) ;
#96 = ORIENTED_EDGE ( 'NONE', *, *, #202, .F. ) ;
#97 = DIRECTION ( 'NONE',  ( -0.000000000000000000, -0.000000000000000000, -1.000000000000000000 ) ) ;
#98 = DIRECTION ( 'NONE',  ( 1.000000000000000000, 0.000000000000000000, 0.000000000000000000 ) ) ;
#99 =( NAMED_UNIT ( * ) SI_UNIT ( $, .STERADIAN. ) SOLID_ANGLE_UNIT ( ) );
#100 = DIRECTION ( 'NONE',  ( 1.000000000000000000, 0.000000000000000000, 0.000000000000000000 ) ) ;
#101 = DIRECTION ( 'NONE',  ( 1.000000000000000000, 0.000000000000000000, 0.000000000000000000 ) ) ;
#102 = DIRECTION ( 'NONE',  ( -0.000000000000000000, -0.000000000000000000, -1.000000000000000000 ) ) ;
#103 = PERSON_AND_ORGANIZATION ( #229, #7 ) ;
#104 = SHAPE_DEFINITION_REPRESENTATION ( #190, #2 ) ;
#105 = ORIENTED_EDGE ( 'NONE', *, *, #224, .T. ) ;
#106 = COORDINATED_UNIVERSAL_TIME_OFFSET ( 1, 0, .AHEAD. ) ;
#107 = EDGE_LOOP ( 'NONE', ( #150, #72 ) ) ;
#108 = CIRCLE ( 'NONE', #253, 7.000000000000000000 ) ;
#109 = APPLICATION_PROTOCOL_DEFINITION ( 'international standard', 'config_control_design', 1994, #21 ) ;
#110 = ORIENTED_EDGE ( 'NONE', *, *, #61, .T. ) ;
#111 = CC_DESIGN_DATE_AND_TIME_ASSIGNMENT ( #141, #47, ( #132 ) ) ;
#112 = PRODUCT_RELATED_PRODUCT_CATEGORY ( 'detail', '', ( #18 ) ) ;
#113 = APPROVAL_PERSON_ORGANIZATION ( #243, #143, #94 ) ;
#114 = DIRECTION ( 'NONE',  ( -0.000000000000000000, -0.000000000000000000, -1.000000000000000000 ) ) ;
#115 = LOCAL_TIME ( 12, 36, 40.00000000000000000, #209 ) ;
#116 = CARTESIAN_POINT ( 'NONE',  ( 0.000000000000000000, 0.000000000000000000, 5.000000000000000000 ) ) ;
#117 = CARTESIAN_POINT ( 'NONE',  ( 0.000000000000000000, 0.000000000000000000, 1000.000000000000000 ) ) ;
#118 = CARTESIAN_POINT ( 'NONE',  ( 0.000000000000000000, 0.000000000000000000, 1000.000000000000000 ) ) ;
#119 = CC_DESIGN_APPROVAL ( #59, ( #194 ) ) ;
#120 = CARTESIAN_POINT ( 'NONE',  ( 7.000000000000000000, 8.572527594031473190E-16, 5.000000000000000000 ) ) ;
#121 = APPROVAL_DATE_TIME ( #203, #204 ) ;
#122 = AXIS2_PLACEMENT_3D ( 'NONE', #164, #13, #142 ) ;
#123 = PERSON_AND_ORGANIZATION ( #229, #7 ) ;
#124 = CARTESIAN_POINT ( 'NONE',  ( 4.250000000000000000, 5.204748896376249713E-16, 5.000000000000000000 ) ) ;
#125 = CALENDAR_DATE ( 2023, 12, 2 ) ;
#126 = VERTEX_POINT ( 'NONE', #180 ) ;
#127 = CYLINDRICAL_SURFACE ( 'NONE', #237, 7.000000000000000000 ) ;
#128 = ORIENTED_EDGE ( 'NONE', *, *, #20, .F. ) ;
#129 = DIRECTION ( 'NONE',  ( 1.000000000000000000, 0.000000000000000000, 0.000000000000000000 ) ) ;
#130 = ADVANCED_FACE ( 'NONE', ( #214 ), #216, .T. ) ;
#131 =( GEOMETRIC_REPRESENTATION_CONTEXT ( 3 ) GLOBAL_UNCERTAINTY_ASSIGNED_CONTEXT ( ( #81 ) ) GLOBAL_UNIT_ASSIGNED_CONTEXT ( ( #235, #255, #99 ) ) REPRESENTATION_CONTEXT ( 'NONE', 'WORKASPACE' ) );
#132 = SECURITY_CLASSIFICATION ( '', '', #34 ) ;
#133 = CARTESIAN_POINT ( 'NONE',  ( -7.000000000000000000, 0.000000000000000000, 5.000000000000000000 ) ) ;
#134 = FACE_OUTER_BOUND ( 'NONE', #239, .T. ) ;
#135 = CC_DESIGN_PERSON_AND_ORGANIZATION_ASSIGNMENT ( #241, #12, ( #132 ) ) ;
#136 = VERTEX_POINT ( 'NONE', #158 ) ;
#137 = DIRECTION ( 'NONE',  ( 1.000000000000000000, 0.000000000000000000, 0.000000000000000000 ) ) ;
#138 = EDGE_LOOP ( 'NONE', ( #171, #233, #91, #110 ) ) ;
#139 = LOCAL_TIME ( 12, 36, 40.00000000000000000, #106 ) ;
#140 = DIRECTION ( 'NONE',  ( 0.000000000000000000, 0.000000000000000000, 1.000000000000000000 ) ) ;
#141 = DATE_AND_TIME ( #68, #9 ) ;
#142 = DIRECTION ( 'NONE',  ( 1.000000000000000000, 0.000000000000000000, 0.000000000000000000 ) ) ;
#143 = APPROVAL ( #145, 'NEURÈENÝ' ) ;
#144 = AXIS2_PLACEMENT_3D ( 'NONE', #89, #140, #137 ) ;
#145 = APPROVAL_STATUS ( 'not_yet_approved' ) ;
#146 = APPROVAL_PERSON_ORGANIZATION ( #103, #204, #46 ) ;
#147 = ORIENTED_EDGE ( 'NONE', *, *, #247, .F. ) ;
#148 = CC_DESIGN_PERSON_AND_ORGANIZATION_ASSIGNMENT ( #52, #182, ( #49 ) ) ;
#149 = DATE_AND_TIME ( #74, #115 ) ;
#150 = ORIENTED_EDGE ( 'NONE', *, *, #247, .T. ) ;
#151 = CARTESIAN_POINT ( 'NONE',  ( 0.000000000000000000, 0.000000000000000000, 1000.000000000000000 ) ) ;
#152 = FACE_OUTER_BOUND ( 'NONE', #107, .T. ) ;
#153 = AXIS2_PLACEMENT_3D ( 'NONE', #151, #97, #174 ) ;
#154 = CIRCLE ( 'NONE', #56, 4.250000000000000000 ) ;
#155 = DIRECTION ( 'NONE',  ( -1.000000000000000000, 0.000000000000000000, 0.000000000000000000 ) ) ;
#156 = CC_DESIGN_PERSON_AND_ORGANIZATION_ASSIGNMENT ( #219, #8, ( #49 ) ) ;
#157 = DIRECTION ( 'NONE',  ( -0.000000000000000000, -0.000000000000000000, -1.000000000000000000 ) ) ;
#158 = CARTESIAN_POINT ( 'NONE',  ( 4.250000000000000000, 5.204748896376249713E-16, 1000.000000000000000 ) ) ;
#159 = ORIENTED_EDGE ( 'NONE', *, *, #224, .F. ) ;
#160 = FACE_OUTER_BOUND ( 'NONE', #75, .T. ) ;
#161 = CC_DESIGN_SECURITY_CLASSIFICATION ( #132, ( #49 ) ) ;
#162 = EDGE_CURVE ( 'NONE', #136, #29, #187, .T. ) ;
#163 = CALENDAR_DATE ( 2023, 12, 2 ) ;
#164 = CARTESIAN_POINT ( 'NONE',  ( 0.000000000000000000, 0.000000000000000000, 5.000000000000000000 ) ) ;
#165 = COORDINATED_UNIVERSAL_TIME_OFFSET ( 1, 0, .AHEAD. ) ;
#166 = ORIENTED_EDGE ( 'NONE', *, *, #20, .T. ) ;
#167 = EDGE_LOOP ( 'NONE', ( #51, #14, #242, #48 ) ) ;
#168 = ADVANCED_FACE ( 'NONE', ( #177, #152 ), #26, .T. ) ;
#169 = DIRECTION ( 'NONE',  ( -0.000000000000000000, -0.000000000000000000, -1.000000000000000000 ) ) ;
#170 = PERSON_AND_ORGANIZATION ( #229, #7 ) ;
#171 = ORIENTED_EDGE ( 'NONE', *, *, #11, .F. ) ;
#172 = FACE_OUTER_BOUND ( 'NONE', #167, .T. ) ;
#173 = EDGE_CURVE ( 'NONE', #210, #193, #217, .T. ) ;
#174 = DIRECTION ( 'NONE',  ( -1.000000000000000000, 0.000000000000000000, 0.000000000000000000 ) ) ;
#175 = AXIS2_PLACEMENT_3D ( 'NONE', #3, #60, #101 ) ;
#176 = CC_DESIGN_PERSON_AND_ORGANIZATION_ASSIGNMENT ( #90, #222, ( #18 ) ) ;
#177 = FACE_BOUND ( 'NONE', #4, .T. ) ;
#178 = PLANE ( 'NONE',  #227 ) ;
#179 = DIRECTION ( 'NONE',  ( 0.000000000000000000, 0.000000000000000000, 1.000000000000000000 ) ) ;
#180 = CARTESIAN_POINT ( 'NONE',  ( -7.000000000000000000, 0.000000000000000000, 0.000000000000000000 ) ) ;
#181 = CIRCLE ( 'NONE', #213, 7.000000000000000000 ) ;
#182 = PERSON_AND_ORGANIZATION_ROLE ( 'creator' ) ;
#183 = VERTEX_POINT ( 'NONE', #86 ) ;
#184 = DATE_TIME_ROLE ( 'creation_date' ) ;
#185 = ORIENTED_EDGE ( 'NONE', *, *, #162, .T. ) ;
#186 = DIRECTION ( 'NONE',  ( 1.000000000000000000, 0.000000000000000000, 0.000000000000000000 ) ) ;
#187 = CIRCLE ( 'NONE', #144, 4.250000000000000000 ) ;
#188 = CALENDAR_DATE ( 2023, 12, 2 ) ;
#189 = CARTESIAN_POINT ( 'NONE',  ( 0.000000000000000000, 0.000000000000000000, 5.000000000000000000 ) ) ;
#190 = PRODUCT_DEFINITION_SHAPE ( 'NONE', 'NONE',  #194 ) ;
#191 = CIRCLE ( 'NONE', #175, 4.250000000000000000 ) ;
#192 = DIRECTION ( 'NONE',  ( 0.000000000000000000, 0.000000000000000000, 1.000000000000000000 ) ) ;
#193 = VERTEX_POINT ( 'NONE', #43 ) ;
#194 = PRODUCT_DEFINITION ( 'NEZNÁMÝ', '', #49, #230 ) ;
#195 = VECTOR ( 'NONE', #157, 1000.000000000000000 ) ;
#196 = LOCAL_TIME ( 12, 36, 40.00000000000000000, #165 ) ;
#197 = DIRECTION ( 'NONE',  ( 1.000000000000000000, 0.000000000000000000, 0.000000000000000000 ) ) ;
#198 = DIRECTION ( 'NONE',  ( 0.000000000000000000, 0.000000000000000000, 1.000000000000000000 ) ) ;
#199 = CIRCLE ( 'NONE', #122, 4.250000000000000000 ) ;
#200 = LOCAL_TIME ( 12, 36, 40.00000000000000000, #50 ) ;
#201 = CYLINDRICAL_SURFACE ( 'NONE', #25, 7.000000000000000000 ) ;
#202 = EDGE_CURVE ( 'NONE', #17, #183, #191, .T. ) ;
#203 = DATE_AND_TIME ( #163, #196 ) ;
#204 = APPROVAL ( #54, 'NEURÈENÝ' ) ;
#205 = DATE_AND_TIME ( #125, #200 ) ;
#206 = CARTESIAN_POINT ( 'NONE',  ( 4.250000000000000000, 5.204748896376249713E-16, 1000.000000000000000 ) ) ;
#207 = ORIENTED_EDGE ( 'NONE', *, *, #61, .F. ) ;
#208 = VECTOR ( 'NONE', #67, 1000.000000000000000 ) ;
#209 = COORDINATED_UNIVERSAL_TIME_OFFSET ( 1, 0, .AHEAD. ) ;
#210 = VERTEX_POINT ( 'NONE', #6 ) ;
#211 = DIRECTION ( 'NONE',  ( 0.000000000000000000, 0.000000000000000000, 1.000000000000000000 ) ) ;
#212 = ADVANCED_FACE ( 'NONE', ( #160 ), #201, .T. ) ;
#213 = AXIS2_PLACEMENT_3D ( 'NONE', #36, #57, #129 ) ;
#214 = FACE_OUTER_BOUND ( 'NONE', #138, .T. ) ;
#215 = CARTESIAN_POINT ( 'NONE',  ( 0.000000000000000000, 0.000000000000000000, 1000.000000000000000 ) ) ;
#216 = CYLINDRICAL_SURFACE ( 'NONE', #252, 4.250000000000000000 ) ;
#217 = LINE ( 'NONE', #120, #208 ) ;
#218 = PERSON_AND_ORGANIZATION_ROLE ( 'creator' ) ;
#219 = PERSON_AND_ORGANIZATION ( #229, #7 ) ;
#220 = CARTESIAN_POINT ( 'NONE',  ( -4.250000000000000000, 0.000000000000000000, 1000.000000000000000 ) ) ;
#221 = EDGE_CURVE ( 'NONE', #223, #126, #240, .T. ) ;
#222 = PERSON_AND_ORGANIZATION_ROLE ( 'design_owner' ) ;
#223 = VERTEX_POINT ( 'NONE', #133 ) ;
#224 = EDGE_CURVE ( 'NONE', #126, #193, #108, .T. ) ;
#225 = PLANE ( 'NONE',  #19 ) ;
#226 = EDGE_CURVE ( 'NONE', #29, #183, #83, .T. ) ;
#227 = AXIS2_PLACEMENT_3D ( 'NONE', #44, #179, #236 ) ;
#228 = APPROVAL_PERSON_ORGANIZATION ( #123, #59, #31 ) ;
#229 = PERSON ( 'NEURÈENÝ', 'NEURÈENÝ', 'NEURÈENÝ', ('NEURÈENÝ'), ('NEURÈENÝ'), ('NEURÈENÝ') ) ;
#230 = DESIGN_CONTEXT ( 'detailed design', #21, 'design' ) ;
#231 = CARTESIAN_POINT ( 'NONE',  ( 0.000000000000000000, 0.000000000000000000, 5.000000000000000000 ) ) ;
#232 = DIRECTION ( 'NONE',  ( -0.000000000000000000, -0.000000000000000000, -1.000000000000000000 ) ) ;
#233 = ORIENTED_EDGE ( 'NONE', *, *, #251, .F. ) ;
#234 = APPLICATION_CONTEXT ( 'configuration controlled 3d designs of mechanical parts and assemblies' ) ;
#235 =( LENGTH_UNIT ( ) NAMED_UNIT ( * ) SI_UNIT ( .MILLI., .METRE. ) );
#236 = DIRECTION ( 'NONE',  ( 1.000000000000000000, 0.000000000000000000, -0.000000000000000000 ) ) ;
#237 = AXIS2_PLACEMENT_3D ( 'NONE', #189, #169, #254 ) ;
#238 = AXIS2_PLACEMENT_3D ( 'NONE', #71, #211, #186 ) ;
#239 = EDGE_LOOP ( 'NONE', ( #159, #128 ) ) ;
#240 = LINE ( 'NONE', #40, #77 ) ;
#241 = PERSON_AND_ORGANIZATION ( #229, #7 ) ;
#242 = ORIENTED_EDGE ( 'NONE', *, *, #202, .T. ) ;
#243 = PERSON_AND_ORGANIZATION ( #229, #7 ) ;
#244 = EDGE_LOOP ( 'NONE', ( #55, #10, #166, #69 ) ) ;
#245 = DIRECTION ( 'NONE',  ( 1.000000000000000000, 0.000000000000000000, 0.000000000000000000 ) ) ;
#246 = ORIENTED_EDGE ( 'NONE', *, *, #173, .F. ) ;
#247 = EDGE_CURVE ( 'NONE', #223, #210, #62, .T. ) ;
#248 = CARTESIAN_POINT ( 'NONE',  ( 0.000000000000000000, 0.000000000000000000, 0.000000000000000000 ) ) ;
#249 = LINE ( 'NONE', #206, #39 ) ;
#250 = FACE_OUTER_BOUND ( 'NONE', #65, .T. ) ;
#251 = EDGE_CURVE ( 'NONE', #29, #136, #154, .T. ) ;
#252 = AXIS2_PLACEMENT_3D ( 'NONE', #215, #232, #45 ) ;
#253 = AXIS2_PLACEMENT_3D ( 'NONE', #5, #41, #197 ) ;
#254 = DIRECTION ( 'NONE',  ( -1.000000000000000000, 0.000000000000000000, 0.000000000000000000 ) ) ;
#255 =( NAMED_UNIT ( * ) PLANE_ANGLE_UNIT ( ) SI_UNIT ( $, .RADIAN. ) );
ENDSEC;
END-ISO-10303-21;
