ISO-10303-21;
HEADER;
FILE_DESCRIPTION (( 'STEP AP203' ),
    '1' );
FILE_NAME ('83be.STEP',
    '2022-07-07T10:14:49',
    ( '' ),
    ( '' ),
    'SwSTEP 2.0',
    'SolidWorks 2019',
    '' );
FILE_SCHEMA (( 'CONFIG_CONTROL_DESIGN' ));
ENDSEC;

DATA;
#1 = CARTESIAN_POINT ( 'NONE',  ( 5.000000000000000000, 6.123233995736766282E-16, 3.000000000000000000 ) ) ;
#2 = FACE_OUTER_BOUND ( 'NONE', #107, .T. ) ;
#3 = ORIENTED_EDGE ( 'NONE', *, *, #265, .T. ) ;
#4 = CARTESIAN_POINT ( 'NONE',  ( 0.000000000000000000, 0.000000000000000000, 503.0000000000000000 ) ) ;
#5 = DIRECTION ( 'NONE',  ( 0.000000000000000000, 0.000000000000000000, 1.000000000000000000 ) ) ;
#6 = ORIENTED_EDGE ( 'NONE', *, *, #231, .T. ) ;
#7 = CARTESIAN_POINT ( 'NONE',  ( -5.000000000000000000, 0.000000000000000000, 3.000000000000000000 ) ) ;
#8 = APPROVAL_STATUS ( 'not_yet_approved' ) ;
#9 = COORDINATED_UNIVERSAL_TIME_OFFSET ( 1, 0, .AHEAD. ) ;
#10 = ORIENTED_EDGE ( 'NONE', *, *, #273, .T. ) ;
#11 = PERSON_AND_ORGANIZATION_ROLE ( 'design_owner' ) ;
#12 = EDGE_CURVE ( 'NONE', #223, #202, #72, .T. ) ;
#13 = CIRCLE ( 'NONE', #132, 5.000000000000000000 ) ;
#14 = CC_DESIGN_APPROVAL ( #245, ( #228 ) ) ;
#15 = LOCAL_TIME ( 12, 14, 49.00000000000000000, #39 ) ;
#16 = APPROVAL_STATUS ( 'not_yet_approved' ) ;
#17 = PERSON_AND_ORGANIZATION ( #159, #248 ) ;
#18 = UNCERTAINTY_MEASURE_WITH_UNIT (LENGTH_MEASURE( 1.000000000000000082E-05 ), #91, 'distance_accuracy_value', 'NONE');
#19 = CARTESIAN_POINT ( 'NONE',  ( 0.000000000000000000, 0.000000000000000000, 3.199999999999980638 ) ) ;
#20 = ADVANCED_FACE ( 'NONE', ( #267 ), #60, .T. ) ;
#21 = CARTESIAN_POINT ( 'NONE',  ( 5.000000000000000000, 6.123233995736766282E-16, 0.000000000000000000 ) ) ;
#22 = AXIS2_PLACEMENT_3D ( 'NONE', #165, #96, #115 ) ;
#23 = FACE_OUTER_BOUND ( 'NONE', #243, .T. ) ;
#24 = CYLINDRICAL_SURFACE ( 'NONE', #83, 5.000000000000000000 ) ;
#25 = CARTESIAN_POINT ( 'NONE',  ( 0.000000000000000000, 0.000000000000000000, 3.000000000000000000 ) ) ;
#26 = EDGE_LOOP ( 'NONE', ( #252, #270, #57, #99 ) ) ;
#27 = APPROVAL ( #16, 'NEURÈENÝ' ) ;
#28 = DIRECTION ( 'NONE',  ( -0.000000000000000000, -0.000000000000000000, -1.000000000000000000 ) ) ;
#29 = VERTEX_POINT ( 'NONE', #151 ) ;
#30 = VECTOR ( 'NONE', #127, 1000.000000000000000 ) ;
#31 = CARTESIAN_POINT ( 'NONE',  ( 0.000000000000000000, 0.000000000000000000, 503.0000000000000000 ) ) ;
#32 = LINE ( 'NONE', #7, #30 ) ;
#33 = DATE_AND_TIME ( #251, #203 ) ;
#34 = CC_DESIGN_PERSON_AND_ORGANIZATION_ASSIGNMENT ( #17, #43, ( #228 ) ) ;
#35 = EDGE_CURVE ( 'NONE', #294, #262, #216, .T. ) ;
#36 = ORIENTED_EDGE ( 'NONE', *, *, #178, .F. ) ;
#37 = CIRCLE ( 'NONE', #259, 2.750000000000000000 ) ;
#38 = AXIS2_PLACEMENT_3D ( 'NONE', #256, #186, #146 ) ;
#39 = COORDINATED_UNIVERSAL_TIME_OFFSET ( 1, 0, .AHEAD. ) ;
#40 = DIRECTION ( 'NONE',  ( 1.000000000000000000, 0.000000000000000000, 0.000000000000000000 ) ) ;
#41 = AXIS2_PLACEMENT_3D ( 'NONE', #187, #212, #46 ) ;
#42 = APPROVAL_PERSON_ORGANIZATION ( #266, #245, #156 ) ;
#43 = PERSON_AND_ORGANIZATION_ROLE ( 'classification_officer' ) ;
#44 = CARTESIAN_POINT ( 'NONE',  ( 0.000000000000000000, 0.000000000000000000, 3.000000000000000000 ) ) ;
#45 = DIRECTION ( 'NONE',  ( 0.000000000000000000, 0.000000000000000000, 1.000000000000000000 ) ) ;
#46 = DIRECTION ( 'NONE',  ( 1.000000000000000000, 0.000000000000000000, 0.000000000000000000 ) ) ;
#47 = APPLICATION_CONTEXT ( 'configuration controlled 3d designs of mechanical parts and assemblies' ) ;
#48 = PRODUCT ( '83be', '83be', '', ( #180 ) ) ;
#49 = DIRECTION ( 'NONE',  ( 1.000000000000000000, 0.000000000000000000, 0.000000000000000000 ) ) ;
#50 = CARTESIAN_POINT ( 'NONE',  ( 0.000000000000000000, 0.000000000000000000, 3.199999999999980638 ) ) ;
#51 = PRODUCT_DEFINITION_FORMATION_WITH_SPECIFIED_SOURCE ( 'LIBOVOLNÝ', '', #48, .NOT_KNOWN. ) ;
#52 = PLANE ( 'NONE',  #303 ) ;
#53 = EDGE_LOOP ( 'NONE', ( #88, #181, #6, #124 ) ) ;
#54 = CARTESIAN_POINT ( 'NONE',  ( 2.750000000000000000, 3.367778697655221012E-16, 503.0000000000000000 ) ) ;
#55 = VERTEX_POINT ( 'NONE', #80 ) ;
#56 = CYLINDRICAL_SURFACE ( 'NONE', #226, 5.000000000000000000 ) ;
#57 = ORIENTED_EDGE ( 'NONE', *, *, #179, .T. ) ;
#58 =( GEOMETRIC_REPRESENTATION_CONTEXT ( 3 ) GLOBAL_UNCERTAINTY_ASSIGNED_CONTEXT ( ( #18 ) ) GLOBAL_UNIT_ASSIGNED_CONTEXT ( ( #91, #227, #160 ) ) REPRESENTATION_CONTEXT ( 'NONE', 'WORKASPACE' ) );
#59 = ADVANCED_FACE ( 'NONE', ( #174 ), #149, .T. ) ;
#60 = CYLINDRICAL_SURFACE ( 'NONE', #100, 2.750000000000000000 ) ;
#61 = AXIS2_PLACEMENT_3D ( 'NONE', #139, #284, #213 ) ;
#62 = CC_DESIGN_PERSON_AND_ORGANIZATION_ASSIGNMENT ( #277, #70, ( #51 ) ) ;
#63 = APPROVAL_DATE_TIME ( #183, #275 ) ;
#64 = ORIENTED_EDGE ( 'NONE', *, *, #12, .T. ) ;
#65 = ORIENTED_EDGE ( 'NONE', *, *, #148, .F. ) ;
#66 = AXIS2_PLACEMENT_3D ( 'NONE', #118, #94, #283 ) ;
#67 = AXIS2_PLACEMENT_3D ( 'NONE', #68, #204, #40 ) ;
#68 = CARTESIAN_POINT ( 'NONE',  ( 0.000000000000000000, 0.000000000000000000, 0.000000000000000000 ) ) ;
#69 = CALENDAR_DATE ( 2022, 7, 7 ) ;
#70 = PERSON_AND_ORGANIZATION_ROLE ( 'design_supplier' ) ;
#71 = CC_DESIGN_PERSON_AND_ORGANIZATION_ASSIGNMENT ( #130, #232, ( #304 ) ) ;
#72 = CIRCLE ( 'NONE', #161, 2.949999999999999734 ) ;
#73 = CC_DESIGN_APPROVAL ( #275, ( #304 ) ) ;
#74 = DIRECTION ( 'NONE',  ( 0.000000000000000000, 0.000000000000000000, 1.000000000000000000 ) ) ;
#75 = DIRECTION ( 'NONE',  ( -0.000000000000000000, -0.000000000000000000, -1.000000000000000000 ) ) ;
#76 = CARTESIAN_POINT ( 'NONE',  ( 2.949999999999999734, 0.000000000000000000, 3.199999999999980638 ) ) ;
#77 = CARTESIAN_POINT ( 'NONE',  ( 0.000000000000000000, 0.000000000000000000, 3.000000000000000000 ) ) ;
#78 = DIRECTION ( 'NONE',  ( 0.000000000000000000, 0.000000000000000000, 1.000000000000000000 ) ) ;
#79 = ORIENTED_EDGE ( 'NONE', *, *, #306, .F. ) ;
#80 = CARTESIAN_POINT ( 'NONE',  ( -5.000000000000000000, 0.000000000000000000, 0.000000000000000000 ) ) ;
#81 = ORIENTED_EDGE ( 'NONE', *, *, #178, .T. ) ;
#82 = PRODUCT_RELATED_PRODUCT_CATEGORY ( 'detail', '', ( #48 ) ) ;
#83 = AXIS2_PLACEMENT_3D ( 'NONE', #214, #28, #260 ) ;
#84 = LOCAL_TIME ( 12, 14, 49.00000000000000000, #268 ) ;
#85 = CARTESIAN_POINT ( 'NONE',  ( 0.000000000000000000, 0.000000000000000000, 3.000000000000000000 ) ) ;
#86 = EDGE_CURVE ( 'NONE', #147, #55, #32, .T. ) ;
#87 = CALENDAR_DATE ( 2022, 7, 7 ) ;
#88 = ORIENTED_EDGE ( 'NONE', *, *, #265, .F. ) ;
#89 = APPROVAL_PERSON_ORGANIZATION ( #229, #27, #299 ) ;
#90 = ORIENTED_EDGE ( 'NONE', *, *, #164, .F. ) ;
#91 =( LENGTH_UNIT ( ) NAMED_UNIT ( * ) SI_UNIT ( .MILLI., .METRE. ) );
#92 = PERSON_AND_ORGANIZATION_ROLE ( 'creator' ) ;
#93 = DIRECTION ( 'NONE',  ( 0.000000000000000000, 0.000000000000000000, 1.000000000000000000 ) ) ;
#94 = DIRECTION ( 'NONE',  ( -0.000000000000000000, -0.000000000000000000, -1.000000000000000000 ) ) ;
#95 = FACE_BOUND ( 'NONE', #157, .T. ) ;
#96 = DIRECTION ( 'NONE',  ( 0.000000000000000000, 0.000000000000000000, 1.000000000000000000 ) ) ;
#97 = CARTESIAN_POINT ( 'NONE',  ( 0.000000000000000000, 0.000000000000000000, 3.000000000000000000 ) ) ;
#98 = ORIENTED_EDGE ( 'NONE', *, *, #222, .T. ) ;
#99 = ORIENTED_EDGE ( 'NONE', *, *, #35, .F. ) ;
#100 = AXIS2_PLACEMENT_3D ( 'NONE', #31, #263, #105 ) ;
#101 = LOCAL_TIME ( 12, 14, 49.00000000000000000, #276 ) ;
#102 = CARTESIAN_POINT ( 'NONE',  ( 0.000000000000000000, 0.000000000000000000, 0.000000000000000000 ) ) ;
#103 = ORIENTED_EDGE ( 'NONE', *, *, #189, .F. ) ;
#104 = CIRCLE ( 'NONE', #38, 5.000000000000000000 ) ;
#105 = DIRECTION ( 'NONE',  ( -1.000000000000000000, 0.000000000000000000, 0.000000000000000000 ) ) ;
#106 = ORIENTED_EDGE ( 'NONE', *, *, #289, .T. ) ;
#107 = EDGE_LOOP ( 'NONE', ( #106, #3 ) ) ;
#108 = AXIS2_PLACEMENT_3D ( 'NONE', #302, #257, #209 ) ;
#109 = ADVANCED_FACE ( 'NONE', ( #288 ), #56, .T. ) ;
#110 = EDGE_CURVE ( 'NONE', #294, #29, #126, .T. ) ;
#111 = VECTOR ( 'NONE', #188, 1000.000000000000000 ) ;
#112 = APPLICATION_PROTOCOL_DEFINITION ( 'international standard', 'config_control_design', 1994, #47 ) ;
#113 = APPROVAL_DATE_TIME ( #153, #27 ) ;
#114 = CALENDAR_DATE ( 2022, 7, 7 ) ;
#115 = DIRECTION ( 'NONE',  ( 1.000000000000000000, 0.000000000000000000, 0.000000000000000000 ) ) ;
#116 = AXIS2_PLACEMENT_3D ( 'NONE', #77, #45, #238 ) ;
#117 = CYLINDRICAL_SURFACE ( 'NONE', #285, 2.750000000000000000 ) ;
#118 = CARTESIAN_POINT ( 'NONE',  ( 0.000000000000000000, 0.000000000000000000, 3.000000000000000000 ) ) ;
#119 = LINE ( 'NONE', #1, #111 ) ;
#120 = LINE ( 'NONE', #54, #247 ) ;
#121 = ORIENTED_EDGE ( 'NONE', *, *, #35, .T. ) ;
#122 = DIRECTION ( 'NONE',  ( -0.000000000000000000, -0.000000000000000000, -1.000000000000000000 ) ) ;
#123 = PLANE ( 'NONE',  #176 ) ;
#124 = ORIENTED_EDGE ( 'NONE', *, *, #86, .F. ) ;
#125 = CARTESIAN_POINT ( 'NONE',  ( -2.750000000000000000, 0.000000000000000000, 503.0000000000000000 ) ) ;
#126 = CIRCLE ( 'NONE', #41, 2.750000000000000000 ) ;
#127 = DIRECTION ( 'NONE',  ( -0.000000000000000000, -0.000000000000000000, -1.000000000000000000 ) ) ;
#128 = APPROVAL_DATE_TIME ( #33, #245 ) ;
#129 = APPLICATION_CONTEXT ( 'configuration controlled 3d designs of mechanical parts and assemblies' ) ;
#130 = PERSON_AND_ORGANIZATION ( #159, #248 ) ;
#131 = EDGE_LOOP ( 'NONE', ( #250, #199, #121, #10 ) ) ;
#132 = AXIS2_PLACEMENT_3D ( 'NONE', #218, #78, #301 ) ;
#133 = DATE_AND_TIME ( #87, #15 ) ;
#134 = CC_DESIGN_DATE_AND_TIME_ASSIGNMENT ( #133, #224, ( #304 ) ) ;
#135 = CIRCLE ( 'NONE', #66, 2.949999999999999734 ) ;
#136 = APPLICATION_PROTOCOL_DEFINITION ( 'international standard', 'config_control_design', 1994, #129 ) ;
#137 = COORDINATED_UNIVERSAL_TIME_OFFSET ( 1, 0, .AHEAD. ) ;
#138 = DIRECTION ( 'NONE',  ( 0.000000000000000000, 0.000000000000000000, 1.000000000000000000 ) ) ;
#139 = CARTESIAN_POINT ( 'NONE',  ( 0.000000000000000000, 0.000000000000000000, 503.0000000000000000 ) ) ;
#140 = CARTESIAN_POINT ( 'NONE',  ( -5.000000000000000000, 0.000000000000000000, 3.000000000000000000 ) ) ;
#141 = ADVANCED_FACE ( 'NONE', ( #23 ), #158, .F. ) ;
#142 = CIRCLE ( 'NONE', #61, 2.750000000000000000 ) ;
#143 = CARTESIAN_POINT ( 'NONE',  ( 5.000000000000000000, 6.123233995736766282E-16, 3.000000000000000000 ) ) ;
#144 = DIRECTION ( 'NONE',  ( 1.000000000000000000, 0.000000000000000000, -0.000000000000000000 ) ) ;
#145 = ORIENTED_EDGE ( 'NONE', *, *, #179, .F. ) ;
#146 = DIRECTION ( 'NONE',  ( 1.000000000000000000, 0.000000000000000000, 0.000000000000000000 ) ) ;
#147 = VERTEX_POINT ( 'NONE', #140 ) ;
#148 = EDGE_CURVE ( 'NONE', #202, #223, #135, .T. ) ;
#149 = PLANE ( 'NONE',  #274 ) ;
#150 = AXIS2_PLACEMENT_3D ( 'NONE', #50, #5, #49 ) ;
#151 = CARTESIAN_POINT ( 'NONE',  ( 2.750000000000000000, 3.367778697655221012E-16, 503.0000000000000000 ) ) ;
#152 = CC_DESIGN_APPROVAL ( #27, ( #51 ) ) ;
#153 = DATE_AND_TIME ( #69, #84 ) ;
#154 = ORIENTED_EDGE ( 'NONE', *, *, #110, .T. ) ;
#155 = CC_DESIGN_DATE_AND_TIME_ASSIGNMENT ( #206, #221, ( #228 ) ) ;
#156 = APPROVAL_ROLE ( '' ) ;
#157 = EDGE_LOOP ( 'NONE', ( #64, #192 ) ) ;
#158 = TOROIDAL_SURFACE ( 'NONE', #22, 2.949999999999999734, 0.2000000000000000111 ) ;
#159 = PERSON ( 'NEURÈENÝ', 'NEURÈENÝ', 'NEURÈENÝ', ('NEURÈENÝ'), ('NEURÈENÝ'), ('NEURÈENÝ') ) ;
#160 =( NAMED_UNIT ( * ) SI_UNIT ( $, .STERADIAN. ) SOLID_ANGLE_UNIT ( ) );
#161 = AXIS2_PLACEMENT_3D ( 'NONE', #85, #220, #177 ) ;
#162 = SECURITY_CLASSIFICATION_LEVEL ( 'unclassified' ) ;
#163 = DIRECTION ( 'NONE',  ( 1.000000000000000000, 0.000000000000000000, -0.000000000000000000 ) ) ;
#164 = EDGE_CURVE ( 'NONE', #242, #223, #217, .T. ) ;
#165 = CARTESIAN_POINT ( 'NONE',  ( 0.000000000000000000, 0.000000000000000000, 3.199999999999980638 ) ) ;
#166 = CARTESIAN_POINT ( 'NONE',  ( -2.750000000000000000, 0.000000000000000000, 503.0000000000000000 ) ) ;
#167 = PRODUCT_DEFINITION_SHAPE ( 'NONE', 'NONE',  #304 ) ;
#168 = FACE_OUTER_BOUND ( 'NONE', #215, .T. ) ;
#169 = CLOSED_SHELL ( 'NONE', ( #171, #20, #109, #271, #190, #198, #297, #59, #141 ) ) ;
#170 = FACE_OUTER_BOUND ( 'NONE', #173, .T. ) ;
#171 = ADVANCED_FACE ( 'NONE', ( #168 ), #244, .F. ) ;
#172 = DIRECTION ( 'NONE',  ( 0.000000000000000000, 0.000000000000000000, 1.000000000000000000 ) ) ;
#173 = EDGE_LOOP ( 'NONE', ( #79, #264, #269, #219 ) ) ;
#174 = FACE_OUTER_BOUND ( 'NONE', #296, .T. ) ;
#175 = EDGE_LOOP ( 'NONE', ( #103, #293 ) ) ;
#176 = AXIS2_PLACEMENT_3D ( 'NONE', #102, #172, #163 ) ;
#177 = DIRECTION ( 'NONE',  ( 1.000000000000000000, 0.000000000000000000, 0.000000000000000000 ) ) ;
#178 = EDGE_CURVE ( 'NONE', #262, #202, #236, .T. ) ;
#179 = EDGE_CURVE ( 'NONE', #242, #262, #278, .T. ) ;
#180 = MECHANICAL_CONTEXT ( 'NONE', #129, 'mechanical' ) ;
#181 = ORIENTED_EDGE ( 'NONE', *, *, #306, .T. ) ;
#182 = VECTOR ( 'NONE', #122, 1000.000000000000000 ) ;
#183 = DATE_AND_TIME ( #201, #101 ) ;
#184 = DIRECTION ( 'NONE',  ( -0.000000000000000000, -0.000000000000000000, -1.000000000000000000 ) ) ;
#185 = DIRECTION ( 'NONE',  ( 0.000000000000000000, 0.000000000000000000, -1.000000000000000000 ) ) ;
#186 = DIRECTION ( 'NONE',  ( 0.000000000000000000, 0.000000000000000000, 1.000000000000000000 ) ) ;
#187 = CARTESIAN_POINT ( 'NONE',  ( 0.000000000000000000, 0.000000000000000000, 503.0000000000000000 ) ) ;
#188 = DIRECTION ( 'NONE',  ( -0.000000000000000000, -0.000000000000000000, -1.000000000000000000 ) ) ;
#189 = EDGE_CURVE ( 'NONE', #55, #290, #13, .T. ) ;
#190 = ADVANCED_FACE ( 'NONE', ( #95, #2 ), #52, .T. ) ;
#191 = FACE_OUTER_BOUND ( 'NONE', #131, .T. ) ;
#192 = ORIENTED_EDGE ( 'NONE', *, *, #148, .T. ) ;
#193 = CC_DESIGN_SECURITY_CLASSIFICATION ( #228, ( #51 ) ) ;
#194 = DIRECTION ( 'NONE',  ( 0.000000000000000000, 0.000000000000000000, 1.000000000000000000 ) ) ;
#195 = CARTESIAN_POINT ( 'NONE',  ( -2.949999999999999734, 3.612708057484692097E-16, 2.999999999999990674 ) ) ;
#196 = ORIENTED_EDGE ( 'NONE', *, *, #12, .F. ) ;
#197 = AXIS2_PLACEMENT_3D ( 'NONE', #19, #138, #233 ) ;
#198 = ADVANCED_FACE ( 'NONE', ( #239 ), #123, .F. ) ;
#199 = ORIENTED_EDGE ( 'NONE', *, *, #110, .F. ) ;
#200 = APPROVAL_STATUS ( 'not_yet_approved' ) ;
#201 = CALENDAR_DATE ( 2022, 7, 7 ) ;
#202 = VERTEX_POINT ( 'NONE', #195 ) ;
#203 = LOCAL_TIME ( 12, 14, 49.00000000000000000, #9 ) ;
#204 = DIRECTION ( 'NONE',  ( 0.000000000000000000, 0.000000000000000000, 1.000000000000000000 ) ) ;
#205 = CC_DESIGN_PERSON_AND_ORGANIZATION_ASSIGNMENT ( #254, #11, ( #48 ) ) ;
#206 = DATE_AND_TIME ( #114, #237 ) ;
#207 = DESIGN_CONTEXT ( 'detailed design', #47, 'design' ) ;
#208 = CARTESIAN_POINT ( 'NONE',  ( 2.949999999999999734, 0.000000000000000000, 2.999999999999990674 ) ) ;
#209 = DIRECTION ( 'NONE',  ( -1.000000000000000000, 1.224646799147353207E-16, 0.000000000000000000 ) ) ;
#210 = CIRCLE ( 'NONE', #116, 5.000000000000000000 ) ;
#211 = DIRECTION ( 'NONE',  ( 1.000000000000000000, 0.000000000000000000, 0.000000000000000000 ) ) ;
#212 = DIRECTION ( 'NONE',  ( 0.000000000000000000, 0.000000000000000000, 1.000000000000000000 ) ) ;
#213 = DIRECTION ( 'NONE',  ( 1.000000000000000000, 0.000000000000000000, 0.000000000000000000 ) ) ;
#214 = CARTESIAN_POINT ( 'NONE',  ( 0.000000000000000000, 0.000000000000000000, 3.000000000000000000 ) ) ;
#215 = EDGE_LOOP ( 'NONE', ( #225, #81, #196, #90 ) ) ;
#216 = LINE ( 'NONE', #125, #182 ) ;
#217 = CIRCLE ( 'NONE', #255, 0.2000000000000000944 ) ;
#218 = CARTESIAN_POINT ( 'NONE',  ( 0.000000000000000000, 0.000000000000000000, 0.000000000000000000 ) ) ;
#219 = ORIENTED_EDGE ( 'NONE', *, *, #189, .T. ) ;
#220 = DIRECTION ( 'NONE',  ( -0.000000000000000000, -0.000000000000000000, -1.000000000000000000 ) ) ;
#221 = DATE_TIME_ROLE ( 'classification_date' ) ;
#222 = EDGE_CURVE ( 'NONE', #29, #294, #142, .T. ) ;
#223 = VERTEX_POINT ( 'NONE', #208 ) ;
#224 = DATE_TIME_ROLE ( 'creation_date' ) ;
#225 = ORIENTED_EDGE ( 'NONE', *, *, #273, .F. ) ;
#226 = AXIS2_PLACEMENT_3D ( 'NONE', #44, #280, #235 ) ;
#227 =( NAMED_UNIT ( * ) PLANE_ANGLE_UNIT ( ) SI_UNIT ( $, .RADIAN. ) );
#228 = SECURITY_CLASSIFICATION ( '', '', #162 ) ;
#229 = PERSON_AND_ORGANIZATION ( #159, #248 ) ;
#230 = EDGE_CURVE ( 'NONE', #29, #242, #120, .T. ) ;
#231 = EDGE_CURVE ( 'NONE', #290, #55, #104, .T. ) ;
#232 = PERSON_AND_ORGANIZATION_ROLE ( 'creator' ) ;
#233 = DIRECTION ( 'NONE',  ( 1.000000000000000000, 0.000000000000000000, 0.000000000000000000 ) ) ;
#234 = DIRECTION ( 'NONE',  ( 1.000000000000000000, 0.000000000000000000, 0.000000000000000000 ) ) ;
#235 = DIRECTION ( 'NONE',  ( -1.000000000000000000, 0.000000000000000000, 0.000000000000000000 ) ) ;
#236 = CIRCLE ( 'NONE', #108, 0.2000000000000000944 ) ;
#237 = LOCAL_TIME ( 12, 14, 49.00000000000000000, #137 ) ;
#238 = DIRECTION ( 'NONE',  ( 1.000000000000000000, 0.000000000000000000, 0.000000000000000000 ) ) ;
#239 = FACE_OUTER_BOUND ( 'NONE', #175, .T. ) ;
#240 = VERTEX_POINT ( 'NONE', #143 ) ;
#241 = CARTESIAN_POINT ( 'NONE',  ( 2.750000000000000000, 3.367778697655221012E-16, 3.199999999999980638 ) ) ;
#242 = VERTEX_POINT ( 'NONE', #241 ) ;
#243 = EDGE_LOOP ( 'NONE', ( #36, #145, #287, #65 ) ) ;
#244 = TOROIDAL_SURFACE ( 'NONE', #197, 2.949999999999999734, 0.2000000000000000111 ) ;
#245 = APPROVAL ( #8, 'NEURÈENÝ' ) ;
#246 = DIRECTION ( 'NONE',  ( 1.000000000000000000, 0.000000000000000000, -0.000000000000000000 ) ) ;
#247 = VECTOR ( 'NONE', #184, 1000.000000000000000 ) ;
#248 = ORGANIZATION ( 'NEURÈENÝ', 'NEURÈENÝ', '' ) ;
#249 = PERSON_AND_ORGANIZATION ( #159, #248 ) ;
#250 = ORIENTED_EDGE ( 'NONE', *, *, #230, .F. ) ;
#251 = CALENDAR_DATE ( 2022, 7, 7 ) ;
#252 = ORIENTED_EDGE ( 'NONE', *, *, #222, .F. ) ;
#253 = CC_DESIGN_PERSON_AND_ORGANIZATION_ASSIGNMENT ( #300, #92, ( #51 ) ) ;
#254 = PERSON_AND_ORGANIZATION ( #159, #248 ) ;
#255 = AXIS2_PLACEMENT_3D ( 'NONE', #76, #307, #185 ) ;
#256 = CARTESIAN_POINT ( 'NONE',  ( 0.000000000000000000, 0.000000000000000000, 0.000000000000000000 ) ) ;
#257 = DIRECTION ( 'NONE',  ( 1.224646799147353207E-16, 1.000000000000000000, -0.000000000000000000 ) ) ;
#258 = DIRECTION ( 'NONE',  ( -1.000000000000000000, 0.000000000000000000, 0.000000000000000000 ) ) ;
#259 = AXIS2_PLACEMENT_3D ( 'NONE', #261, #282, #211 ) ;
#260 = DIRECTION ( 'NONE',  ( -1.000000000000000000, 0.000000000000000000, 0.000000000000000000 ) ) ;
#261 = CARTESIAN_POINT ( 'NONE',  ( 0.000000000000000000, 0.000000000000000000, 3.199999999999980638 ) ) ;
#262 = VERTEX_POINT ( 'NONE', #279 ) ;
#263 = DIRECTION ( 'NONE',  ( -0.000000000000000000, -0.000000000000000000, -1.000000000000000000 ) ) ;
#264 = ORIENTED_EDGE ( 'NONE', *, *, #289, .F. ) ;
#265 = EDGE_CURVE ( 'NONE', #240, #147, #210, .T. ) ;
#266 = PERSON_AND_ORGANIZATION ( #159, #248 ) ;
#267 = FACE_OUTER_BOUND ( 'NONE', #26, .T. ) ;
#268 = COORDINATED_UNIVERSAL_TIME_OFFSET ( 1, 0, .AHEAD. ) ;
#269 = ORIENTED_EDGE ( 'NONE', *, *, #86, .T. ) ;
#270 = ORIENTED_EDGE ( 'NONE', *, *, #230, .T. ) ;
#271 = ADVANCED_FACE ( 'NONE', ( #170 ), #24, .T. ) ;
#272 = SHAPE_DEFINITION_REPRESENTATION ( #167, #281 ) ;
#273 = EDGE_CURVE ( 'NONE', #262, #242, #37, .T. ) ;
#274 = AXIS2_PLACEMENT_3D ( 'NONE', #4, #194, #246 ) ;
#275 = APPROVAL ( #200, 'NEURÈENÝ' ) ;
#276 = COORDINATED_UNIVERSAL_TIME_OFFSET ( 1, 0, .AHEAD. ) ;
#277 = PERSON_AND_ORGANIZATION ( #159, #248 ) ;
#278 = CIRCLE ( 'NONE', #150, 2.750000000000000000 ) ;
#279 = CARTESIAN_POINT ( 'NONE',  ( -2.750000000000000000, 0.000000000000000000, 3.199999999999980638 ) ) ;
#280 = DIRECTION ( 'NONE',  ( -0.000000000000000000, -0.000000000000000000, -1.000000000000000000 ) ) ;
#281 = ADVANCED_BREP_SHAPE_REPRESENTATION ( '83be', ( #292, #67 ), #58 ) ;
#282 = DIRECTION ( 'NONE',  ( 0.000000000000000000, 0.000000000000000000, 1.000000000000000000 ) ) ;
#283 = DIRECTION ( 'NONE',  ( 1.000000000000000000, 0.000000000000000000, 0.000000000000000000 ) ) ;
#284 = DIRECTION ( 'NONE',  ( 0.000000000000000000, 0.000000000000000000, 1.000000000000000000 ) ) ;
#285 = AXIS2_PLACEMENT_3D ( 'NONE', #305, #75, #258 ) ;
#286 = APPROVAL_PERSON_ORGANIZATION ( #249, #275, #295 ) ;
#287 = ORIENTED_EDGE ( 'NONE', *, *, #164, .T. ) ;
#288 = FACE_OUTER_BOUND ( 'NONE', #53, .T. ) ;
#289 = EDGE_CURVE ( 'NONE', #147, #240, #291, .T. ) ;
#290 = VERTEX_POINT ( 'NONE', #21 ) ;
#291 = CIRCLE ( 'NONE', #298, 5.000000000000000000 ) ;
#292 = MANIFOLD_SOLID_BREP ( 'Zaoblit1', #169 ) ;
#293 = ORIENTED_EDGE ( 'NONE', *, *, #231, .F. ) ;
#294 = VERTEX_POINT ( 'NONE', #166 ) ;
#295 = APPROVAL_ROLE ( '' ) ;
#296 = EDGE_LOOP ( 'NONE', ( #154, #98 ) ) ;
#297 = ADVANCED_FACE ( 'NONE', ( #191 ), #117, .T. ) ;
#298 = AXIS2_PLACEMENT_3D ( 'NONE', #97, #74, #234 ) ;
#299 = APPROVAL_ROLE ( '' ) ;
#300 = PERSON_AND_ORGANIZATION ( #159, #248 ) ;
#301 = DIRECTION ( 'NONE',  ( 1.000000000000000000, 0.000000000000000000, 0.000000000000000000 ) ) ;
#302 = CARTESIAN_POINT ( 'NONE',  ( -2.949999999999999734, 3.612708057484692097E-16, 3.199999999999980638 ) ) ;
#303 = AXIS2_PLACEMENT_3D ( 'NONE', #25, #93, #144 ) ;
#304 = PRODUCT_DEFINITION ( 'NEZNÁMÝ', '', #51, #207 ) ;
#305 = CARTESIAN_POINT ( 'NONE',  ( 0.000000000000000000, 0.000000000000000000, 503.0000000000000000 ) ) ;
#306 = EDGE_CURVE ( 'NONE', #240, #290, #119, .T. ) ;
#307 = DIRECTION ( 'NONE',  ( 0.000000000000000000, -1.000000000000000000, 0.000000000000000000 ) ) ;
ENDSEC;
END-ISO-10303-21;
