ISO-10303-21;
HEADER;
FILE_DESCRIPTION (( 'STEP AP203' ),
    '1' );
FILE_NAME ('0036.STEP',
    '2022-07-07T10:17:00',
    ( '' ),
    ( '' ),
    'SwSTEP 2.0',
    'SolidWorks 2019',
    '' );
FILE_SCHEMA (( 'CONFIG_CONTROL_DESIGN' ));
ENDSEC;

DATA;
#1 = ORIENTED_EDGE ( 'NONE', *, *, #48, .F. ) ;
#2 = VERTEX_POINT ( 'NONE', #192 ) ;
#3 = APPROVAL_STATUS ( 'not_yet_approved' ) ;
#4 = CC_DESIGN_PERSON_AND_ORGANIZATION_ASSIGNMENT ( #260, #173, ( #156 ) ) ;
#5 = DIRECTION ( 'NONE',  ( -0.000000000000000000, -0.000000000000000000, -1.000000000000000000 ) ) ;
#6 = EDGE_LOOP ( 'NONE', ( #213, #217 ) ) ;
#7 = COORDINATED_UNIVERSAL_TIME_OFFSET ( 1, 0, .AHEAD. ) ;
#8 = DIRECTION ( 'NONE',  ( -0.000000000000000000, -0.000000000000000000, -1.000000000000000000 ) ) ;
#9 = DIRECTION ( 'NONE',  ( 0.000000000000000000, 0.000000000000000000, 1.000000000000000000 ) ) ;
#10 = PERSON_AND_ORGANIZATION ( #164, #273 ) ;
#11 = DIRECTION ( 'NONE',  ( -0.000000000000000000, -0.000000000000000000, -1.000000000000000000 ) ) ;
#12 = APPLICATION_CONTEXT ( 'configuration controlled 3d designs of mechanical parts and assemblies' ) ;
#13 = CYLINDRICAL_SURFACE ( 'NONE', #92, 5.000000000000000000 ) ;
#14 = DIRECTION ( 'NONE',  ( 1.000000000000000000, 0.000000000000000000, 0.000000000000000000 ) ) ;
#15 = CARTESIAN_POINT ( 'NONE',  ( -2.600000000000000089, 0.000000000000000000, 3.199999999999980638 ) ) ;
#16 = AXIS2_PLACEMENT_3D ( 'NONE', #175, #76, #107 ) ;
#17 = CC_DESIGN_APPROVAL ( #111, ( #67 ) ) ;
#18 = EDGE_LOOP ( 'NONE', ( #189, #303 ) ) ;
#19 = EDGE_CURVE ( 'NONE', #102, #302, #151, .T. ) ;
#20 = ORIENTED_EDGE ( 'NONE', *, *, #240, .F. ) ;
#21 = AXIS2_PLACEMENT_3D ( 'NONE', #112, #178, #86 ) ;
#22 = ORIENTED_EDGE ( 'NONE', *, *, #106, .T. ) ;
#23 = ORIENTED_EDGE ( 'NONE', *, *, #262, .T. ) ;
#24 = PERSON_AND_ORGANIZATION ( #164, #273 ) ;
#25 = DIRECTION ( 'NONE',  ( -1.000000000000000000, 0.000000000000000000, 0.000000000000000000 ) ) ;
#26 = CALENDAR_DATE ( 2022, 7, 7 ) ;
#27 = PLANE ( 'NONE',  #72 ) ;
#28 = PERSON_AND_ORGANIZATION_ROLE ( 'creator' ) ;
#29 = DIRECTION ( 'NONE',  ( -0.000000000000000000, -0.000000000000000000, -1.000000000000000000 ) ) ;
#30 = CC_DESIGN_PERSON_AND_ORGANIZATION_ASSIGNMENT ( #193, #290, ( #35 ) ) ;
#31 = FACE_OUTER_BOUND ( 'NONE', #186, .T. ) ;
#32 = CARTESIAN_POINT ( 'NONE',  ( 5.000000000000000000, 6.123233995736766282E-16, 3.000000000000000000 ) ) ;
#33 = DIRECTION ( 'NONE',  ( 1.000000000000000000, 0.000000000000000000, 0.000000000000000000 ) ) ;
#34 = DIRECTION ( 'NONE',  ( 0.000000000000000000, -1.000000000000000000, 0.000000000000000000 ) ) ;
#35 = PRODUCT_DEFINITION_FORMATION_WITH_SPECIFIED_SOURCE ( 'LIBOVOLNÝ', '', #156, .NOT_KNOWN. ) ;
#36 = ADVANCED_FACE ( 'NONE', ( #286 ), #39, .T. ) ;
#37 = AXIS2_PLACEMENT_3D ( 'NONE', #294, #83, #177 ) ;
#38 = SECURITY_CLASSIFICATION ( '', '', #287 ) ;
#39 = CYLINDRICAL_SURFACE ( 'NONE', #52, 2.600000000000000089 ) ;
#40 = VERTEX_POINT ( 'NONE', #144 ) ;
#41 = EDGE_LOOP ( 'NONE', ( #63, #116, #119, #97 ) ) ;
#42 = CIRCLE ( 'NONE', #101, 2.600000000000000089 ) ;
#43 = DIRECTION ( 'NONE',  ( -0.000000000000000000, -0.000000000000000000, -1.000000000000000000 ) ) ;
#44 = APPROVAL_ROLE ( '' ) ;
#45 = CARTESIAN_POINT ( 'NONE',  ( 0.000000000000000000, 0.000000000000000000, 503.0000000000000000 ) ) ;
#46 = COORDINATED_UNIVERSAL_TIME_OFFSET ( 1, 0, .AHEAD. ) ;
#47 = CARTESIAN_POINT ( 'NONE',  ( 0.000000000000000000, 0.000000000000000000, 3.000000000000000000 ) ) ;
#48 = EDGE_CURVE ( 'NONE', #166, #40, #88, .T. ) ;
#49 = SHAPE_DEFINITION_REPRESENTATION ( #207, #304 ) ;
#50 = DIRECTION ( 'NONE',  ( 0.000000000000000000, 0.000000000000000000, 1.000000000000000000 ) ) ;
#51 = CARTESIAN_POINT ( 'NONE',  ( -2.600000000000000089, 0.000000000000000000, 503.0000000000000000 ) ) ;
#52 = AXIS2_PLACEMENT_3D ( 'NONE', #280, #43, #90 ) ;
#53 = FACE_OUTER_BOUND ( 'NONE', #254, .T. ) ;
#54 = CARTESIAN_POINT ( 'NONE',  ( 0.000000000000000000, 0.000000000000000000, 3.000000000000000000 ) ) ;
#55 = DIRECTION ( 'NONE',  ( 1.000000000000000000, 0.000000000000000000, -0.000000000000000000 ) ) ;
#56 = EDGE_CURVE ( 'NONE', #2, #68, #169, .T. ) ;
#57 = CIRCLE ( 'NONE', #248, 2.799999999999999822 ) ;
#58 = CC_DESIGN_PERSON_AND_ORGANIZATION_ASSIGNMENT ( #253, #98, ( #35 ) ) ;
#59 = LOCAL_TIME ( 12, 17, 0.000000000000000000, #46 ) ;
#60 = EDGE_CURVE ( 'NONE', #68, #2, #187, .T. ) ;
#61 = VERTEX_POINT ( 'NONE', #127 ) ;
#62 = AXIS2_PLACEMENT_3D ( 'NONE', #244, #270, #284 ) ;
#63 = ORIENTED_EDGE ( 'NONE', *, *, #185, .F. ) ;
#64 = DESIGN_CONTEXT ( 'detailed design', #12, 'design' ) ;
#65 = DIRECTION ( 'NONE',  ( -0.000000000000000000, -0.000000000000000000, -1.000000000000000000 ) ) ;
#66 = DATE_AND_TIME ( #306, #74 ) ;
#67 = PRODUCT_DEFINITION ( 'NEZNÁMÝ', '', #35, #64 ) ;
#68 = VERTEX_POINT ( 'NONE', #288 ) ;
#69 = ORIENTED_EDGE ( 'NONE', *, *, #19, .T. ) ;
#70 = APPROVAL_STATUS ( 'not_yet_approved' ) ;
#71 = CARTESIAN_POINT ( 'NONE',  ( 2.600000000000000089, 3.184081677783118191E-16, 503.0000000000000000 ) ) ;
#72 = AXIS2_PLACEMENT_3D ( 'NONE', #122, #125, #242 ) ;
#73 = ORIENTED_EDGE ( 'NONE', *, *, #56, .F. ) ;
#74 = LOCAL_TIME ( 12, 17, 0.000000000000000000, #220 ) ;
#75 = PERSON_AND_ORGANIZATION ( #164, #273 ) ;
#76 = DIRECTION ( 'NONE',  ( 0.000000000000000000, 0.000000000000000000, 1.000000000000000000 ) ) ;
#77 = CALENDAR_DATE ( 2022, 7, 7 ) ;
#78 = CARTESIAN_POINT ( 'NONE',  ( -5.000000000000000000, 0.000000000000000000, 3.000000000000000000 ) ) ;
#79 =( NAMED_UNIT ( * ) SI_UNIT ( $, .STERADIAN. ) SOLID_ANGLE_UNIT ( ) );
#80 = ADVANCED_FACE ( 'NONE', ( #31 ), #13, .T. ) ;
#81 = DIRECTION ( 'NONE',  ( -0.000000000000000000, -0.000000000000000000, -1.000000000000000000 ) ) ;
#82 = DIRECTION ( 'NONE',  ( 0.000000000000000000, 0.000000000000000000, 1.000000000000000000 ) ) ;
#83 = DIRECTION ( 'NONE',  ( 0.000000000000000000, 0.000000000000000000, 1.000000000000000000 ) ) ;
#84 = CIRCLE ( 'NONE', #62, 5.000000000000000000 ) ;
#85 =( NAMED_UNIT ( * ) PLANE_ANGLE_UNIT ( ) SI_UNIT ( $, .RADIAN. ) );
#86 = DIRECTION ( 'NONE',  ( 1.000000000000000000, 0.000000000000000000, 0.000000000000000000 ) ) ;
#87 = AXIS2_PLACEMENT_3D ( 'NONE', #307, #115, #96 ) ;
#88 = CIRCLE ( 'NONE', #208, 2.799999999999999822 ) ;
#89 = APPROVAL_PERSON_ORGANIZATION ( #256, #214, #44 ) ;
#90 = DIRECTION ( 'NONE',  ( -1.000000000000000000, 0.000000000000000000, 0.000000000000000000 ) ) ;
#91 = ORIENTED_EDGE ( 'NONE', *, *, #106, .F. ) ;
#92 = AXIS2_PLACEMENT_3D ( 'NONE', #47, #81, #223 ) ;
#93 = ORIENTED_EDGE ( 'NONE', *, *, #60, .T. ) ;
#94 = CC_DESIGN_DATE_AND_TIME_ASSIGNMENT ( #241, #121, ( #67 ) ) ;
#95 = APPROVAL_ROLE ( '' ) ;
#96 = DIRECTION ( 'NONE',  ( 1.000000000000000000, 0.000000000000000000, 0.000000000000000000 ) ) ;
#97 = ORIENTED_EDGE ( 'NONE', *, *, #135, .F. ) ;
#98 = PERSON_AND_ORGANIZATION_ROLE ( 'creator' ) ;
#99 = LINE ( 'NONE', #261, #160 ) ;
#100 = EDGE_CURVE ( 'NONE', #140, #120, #258, .T. ) ;
#101 = AXIS2_PLACEMENT_3D ( 'NONE', #200, #245, #203 ) ;
#102 = VERTEX_POINT ( 'NONE', #78 ) ;
#103 =( GEOMETRIC_REPRESENTATION_CONTEXT ( 3 ) GLOBAL_UNCERTAINTY_ASSIGNED_CONTEXT ( ( #188 ) ) GLOBAL_UNIT_ASSIGNED_CONTEXT ( ( #295, #85, #79 ) ) REPRESENTATION_CONTEXT ( 'NONE', 'WORKASPACE' ) );
#104 = DATE_AND_TIME ( #77, #209 ) ;
#105 = CARTESIAN_POINT ( 'NONE',  ( 0.000000000000000000, 0.000000000000000000, 3.000000000000000000 ) ) ;
#106 = EDGE_CURVE ( 'NONE', #252, #166, #136, .T. ) ;
#107 = DIRECTION ( 'NONE',  ( 1.000000000000000000, 0.000000000000000000, 0.000000000000000000 ) ) ;
#108 = DIRECTION ( 'NONE',  ( 1.000000000000000000, 0.000000000000000000, -0.000000000000000000 ) ) ;
#109 = CARTESIAN_POINT ( 'NONE',  ( -2.799999999999999822, 3.429011037612588783E-16, 3.199999999999980638 ) ) ;
#110 = FACE_OUTER_BOUND ( 'NONE', #282, .T. ) ;
#111 = APPROVAL ( #70, 'NEURÈENÝ' ) ;
#112 = CARTESIAN_POINT ( 'NONE',  ( 0.000000000000000000, 0.000000000000000000, 3.199999999999980638 ) ) ;
#113 = PLANE ( 'NONE',  #300 ) ;
#114 = CC_DESIGN_APPROVAL ( #214, ( #35 ) ) ;
#115 = DIRECTION ( 'NONE',  ( 0.000000000000000000, 0.000000000000000000, 1.000000000000000000 ) ) ;
#116 = ORIENTED_EDGE ( 'NONE', *, *, #155, .T. ) ;
#117 = ORIENTED_EDGE ( 'NONE', *, *, #162, .T. ) ;
#118 = DATE_AND_TIME ( #26, #229 ) ;
#119 = ORIENTED_EDGE ( 'NONE', *, *, #56, .T. ) ;
#120 = VERTEX_POINT ( 'NONE', #71 ) ;
#121 = DATE_TIME_ROLE ( 'creation_date' ) ;
#122 = CARTESIAN_POINT ( 'NONE',  ( 0.000000000000000000, 0.000000000000000000, 503.0000000000000000 ) ) ;
#123 = DATE_TIME_ROLE ( 'classification_date' ) ;
#124 = ADVANCED_FACE ( 'NONE', ( #199 ), #27, .T. ) ;
#125 = DIRECTION ( 'NONE',  ( 0.000000000000000000, 0.000000000000000000, 1.000000000000000000 ) ) ;
#126 = TOROIDAL_SURFACE ( 'NONE', #275, 2.799999999999999822, 0.2000000000000000111 ) ;
#127 = CARTESIAN_POINT ( 'NONE',  ( 2.600000000000000089, 3.184081677783118191E-16, 3.199999999999980638 ) ) ;
#128 = DIRECTION ( 'NONE',  ( 0.000000000000000000, 0.000000000000000000, 1.000000000000000000 ) ) ;
#129 = CARTESIAN_POINT ( 'NONE',  ( 0.000000000000000000, 0.000000000000000000, 503.0000000000000000 ) ) ;
#130 = CARTESIAN_POINT ( 'NONE',  ( 0.000000000000000000, 0.000000000000000000, 3.199999999999980638 ) ) ;
#131 = DIRECTION ( 'NONE',  ( 1.000000000000000000, 0.000000000000000000, 0.000000000000000000 ) ) ;
#132 = AXIS2_PLACEMENT_3D ( 'NONE', #230, #9, #55 ) ;
#133 = LOCAL_TIME ( 12, 17, 0.000000000000000000, #142 ) ;
#134 = FACE_OUTER_BOUND ( 'NONE', #210, .T. ) ;
#135 = EDGE_CURVE ( 'NONE', #102, #68, #99, .T. ) ;
#136 = CIRCLE ( 'NONE', #305, 0.2000000000000000944 ) ;
#137 = VECTOR ( 'NONE', #8, 1000.000000000000000 ) ;
#138 = DIRECTION ( 'NONE',  ( 0.000000000000000000, 0.000000000000000000, 1.000000000000000000 ) ) ;
#139 = ADVANCED_FACE ( 'NONE', ( #238 ), #198, .T. ) ;
#140 = VERTEX_POINT ( 'NONE', #51 ) ;
#141 = ORIENTED_EDGE ( 'NONE', *, *, #100, .F. ) ;
#142 = COORDINATED_UNIVERSAL_TIME_OFFSET ( 1, 0, .AHEAD. ) ;
#143 = CIRCLE ( 'NONE', #201, 0.2000000000000000944 ) ;
#144 = CARTESIAN_POINT ( 'NONE',  ( 2.799999999999999822, 0.000000000000000000, 2.999999999999990674 ) ) ;
#145 = CALENDAR_DATE ( 2022, 7, 7 ) ;
#146 = DIRECTION ( 'NONE',  ( -0.000000000000000000, -0.000000000000000000, -1.000000000000000000 ) ) ;
#147 = CALENDAR_DATE ( 2022, 7, 7 ) ;
#148 = CARTESIAN_POINT ( 'NONE',  ( -2.799999999999999822, 3.429011037612589276E-16, 2.999999999999990674 ) ) ;
#149 = LINE ( 'NONE', #219, #205 ) ;
#150 = APPLICATION_PROTOCOL_DEFINITION ( 'international standard', 'config_control_design', 1994, #268 ) ;
#151 = CIRCLE ( 'NONE', #87, 5.000000000000000000 ) ;
#152 = DIRECTION ( 'NONE',  ( -0.000000000000000000, -0.000000000000000000, -1.000000000000000000 ) ) ;
#153 = CLOSED_SHELL ( 'NONE', ( #183, #36, #139, #80, #298, #301, #204, #124, #274 ) ) ;
#154 = APPROVAL_PERSON_ORGANIZATION ( #283, #111, #95 ) ;
#155 = EDGE_CURVE ( 'NONE', #302, #2, #266, .T. ) ;
#156 = PRODUCT ( '0036', '0036', '', ( #246 ) ) ;
#157 = AXIS2_PLACEMENT_3D ( 'NONE', #45, #146, #25 ) ;
#158 = CC_DESIGN_DATE_AND_TIME_ASSIGNMENT ( #66, #123, ( #38 ) ) ;
#159 = EDGE_LOOP ( 'NONE', ( #216, #141, #117, #211 ) ) ;
#160 = VECTOR ( 'NONE', #225, 1000.000000000000000 ) ;
#161 = ORIENTED_EDGE ( 'NONE', *, *, #179, .T. ) ;
#162 = EDGE_CURVE ( 'NONE', #140, #252, #149, .T. ) ;
#163 = DIRECTION ( 'NONE',  ( 1.000000000000000000, 0.000000000000000000, 0.000000000000000000 ) ) ;
#164 = PERSON ( 'NEURÈENÝ', 'NEURÈENÝ', 'NEURÈENÝ', ('NEURÈENÝ'), ('NEURÈENÝ'), ('NEURÈENÝ') ) ;
#165 = EDGE_LOOP ( 'NONE', ( #277, #161, #23, #184 ) ) ;
#166 = VERTEX_POINT ( 'NONE', #148 ) ;
#167 = APPROVAL_DATE_TIME ( #118, #111 ) ;
#168 = FACE_OUTER_BOUND ( 'NONE', #159, .T. ) ;
#169 = CIRCLE ( 'NONE', #272, 5.000000000000000000 ) ;
#170 = CC_DESIGN_SECURITY_CLASSIFICATION ( #38, ( #35 ) ) ;
#171 = APPROVAL_STATUS ( 'not_yet_approved' ) ;
#172 = DIRECTION ( 'NONE',  ( -1.000000000000000000, 1.224646799147353207E-16, 0.000000000000000000 ) ) ;
#173 = PERSON_AND_ORGANIZATION_ROLE ( 'design_owner' ) ;
#174 = CARTESIAN_POINT ( 'NONE',  ( 2.600000000000000089, 3.184081677783118191E-16, 503.0000000000000000 ) ) ;
#175 = CARTESIAN_POINT ( 'NONE',  ( 0.000000000000000000, 0.000000000000000000, 0.000000000000000000 ) ) ;
#176 = FACE_BOUND ( 'NONE', #18, .T. ) ;
#177 = DIRECTION ( 'NONE',  ( 1.000000000000000000, 0.000000000000000000, 0.000000000000000000 ) ) ;
#178 = DIRECTION ( 'NONE',  ( 0.000000000000000000, 0.000000000000000000, 1.000000000000000000 ) ) ;
#179 = EDGE_CURVE ( 'NONE', #120, #61, #292, .T. ) ;
#180 = PRODUCT_RELATED_PRODUCT_CATEGORY ( 'detail', '', ( #156 ) ) ;
#181 = CIRCLE ( 'NONE', #21, 2.600000000000000089 ) ;
#182 = AXIS2_PLACEMENT_3D ( 'NONE', #267, #226, #14 ) ;
#183 = ADVANCED_FACE ( 'NONE', ( #221 ), #212, .F. ) ;
#184 = ORIENTED_EDGE ( 'NONE', *, *, #162, .F. ) ;
#185 = EDGE_CURVE ( 'NONE', #302, #102, #84, .T. ) ;
#186 = EDGE_LOOP ( 'NONE', ( #239, #278, #235, #93 ) ) ;
#187 = CIRCLE ( 'NONE', #16, 5.000000000000000000 ) ;
#188 = UNCERTAINTY_MEASURE_WITH_UNIT (LENGTH_MEASURE( 1.000000000000000082E-05 ), #295, 'distance_accuracy_value', 'NONE');
#189 = ORIENTED_EDGE ( 'NONE', *, *, #240, .T. ) ;
#190 = ORIENTED_EDGE ( 'NONE', *, *, #276, .T. ) ;
#191 = APPLICATION_PROTOCOL_DEFINITION ( 'international standard', 'config_control_design', 1994, #12 ) ;
#192 = CARTESIAN_POINT ( 'NONE',  ( 5.000000000000000000, 6.123233995736766282E-16, 0.000000000000000000 ) ) ;
#193 = PERSON_AND_ORGANIZATION ( #164, #273 ) ;
#194 = DIRECTION ( 'NONE',  ( 1.224646799147353207E-16, 1.000000000000000000, -0.000000000000000000 ) ) ;
#195 = MANIFOLD_SOLID_BREP ( 'Zaoblit1', #153 ) ;
#196 = APPROVAL_DATE_TIME ( #104, #234 ) ;
#197 = DIRECTION ( 'NONE',  ( 1.000000000000000000, 0.000000000000000000, 0.000000000000000000 ) ) ;
#198 = CYLINDRICAL_SURFACE ( 'NONE', #231, 5.000000000000000000 ) ;
#199 = FACE_OUTER_BOUND ( 'NONE', #6, .T. ) ;
#200 = CARTESIAN_POINT ( 'NONE',  ( 0.000000000000000000, 0.000000000000000000, 503.0000000000000000 ) ) ;
#201 = AXIS2_PLACEMENT_3D ( 'NONE', #297, #34, #293 ) ;
#202 = PLANE ( 'NONE',  #132 ) ;
#203 = DIRECTION ( 'NONE',  ( 1.000000000000000000, 0.000000000000000000, 0.000000000000000000 ) ) ;
#204 = ADVANCED_FACE ( 'NONE', ( #168 ), #257, .T. ) ;
#205 = VECTOR ( 'NONE', #5, 1000.000000000000000 ) ;
#206 = CC_DESIGN_PERSON_AND_ORGANIZATION_ASSIGNMENT ( #24, #28, ( #67 ) ) ;
#207 = PRODUCT_DEFINITION_SHAPE ( 'NONE', 'NONE',  #67 ) ;
#208 = AXIS2_PLACEMENT_3D ( 'NONE', #236, #65, #163 ) ;
#209 = LOCAL_TIME ( 12, 17, 0.000000000000000000, #7 ) ;
#210 = EDGE_LOOP ( 'NONE', ( #289, #73 ) ) ;
#211 = ORIENTED_EDGE ( 'NONE', *, *, #224, .T. ) ;
#212 = TOROIDAL_SURFACE ( 'NONE', #37, 2.799999999999999822, 0.2000000000000000111 ) ;
#213 = ORIENTED_EDGE ( 'NONE', *, *, #100, .T. ) ;
#214 = APPROVAL ( #3, 'NEURÈENÝ' ) ;
#215 = PERSON_AND_ORGANIZATION_ROLE ( 'classification_officer' ) ;
#216 = ORIENTED_EDGE ( 'NONE', *, *, #179, .F. ) ;
#217 = ORIENTED_EDGE ( 'NONE', *, *, #299, .T. ) ;
#218 = COORDINATED_UNIVERSAL_TIME_OFFSET ( 1, 0, .AHEAD. ) ;
#219 = CARTESIAN_POINT ( 'NONE',  ( -2.600000000000000089, 0.000000000000000000, 503.0000000000000000 ) ) ;
#220 = COORDINATED_UNIVERSAL_TIME_OFFSET ( 1, 0, .AHEAD. ) ;
#221 = FACE_OUTER_BOUND ( 'NONE', #255, .T. ) ;
#222 = VECTOR ( 'NONE', #11, 1000.000000000000000 ) ;
#223 = DIRECTION ( 'NONE',  ( -1.000000000000000000, 0.000000000000000000, 0.000000000000000000 ) ) ;
#224 = EDGE_CURVE ( 'NONE', #252, #61, #228, .T. ) ;
#225 = DIRECTION ( 'NONE',  ( -0.000000000000000000, -0.000000000000000000, -1.000000000000000000 ) ) ;
#226 = DIRECTION ( 'NONE',  ( 0.000000000000000000, 0.000000000000000000, 1.000000000000000000 ) ) ;
#227 = DIRECTION ( 'NONE',  ( 0.000000000000000000, 0.000000000000000000, 1.000000000000000000 ) ) ;
#228 = CIRCLE ( 'NONE', #296, 2.600000000000000089 ) ;
#229 = LOCAL_TIME ( 12, 17, 0.000000000000000000, #218 ) ;
#230 = CARTESIAN_POINT ( 'NONE',  ( 0.000000000000000000, 0.000000000000000000, 0.000000000000000000 ) ) ;
#231 = AXIS2_PLACEMENT_3D ( 'NONE', #105, #29, #291 ) ;
#232 = ORIENTED_EDGE ( 'NONE', *, *, #224, .F. ) ;
#233 = ORIENTED_EDGE ( 'NONE', *, *, #276, .F. ) ;
#234 = APPROVAL ( #171, 'NEURÈENÝ' ) ;
#235 = ORIENTED_EDGE ( 'NONE', *, *, #135, .T. ) ;
#236 = CARTESIAN_POINT ( 'NONE',  ( 0.000000000000000000, 0.000000000000000000, 3.000000000000000000 ) ) ;
#237 = APPROVAL_DATE_TIME ( #281, #214 ) ;
#238 = FACE_OUTER_BOUND ( 'NONE', #41, .T. ) ;
#239 = ORIENTED_EDGE ( 'NONE', *, *, #155, .F. ) ;
#240 = EDGE_CURVE ( 'NONE', #40, #166, #57, .T. ) ;
#241 = DATE_AND_TIME ( #147, #59 ) ;
#242 = DIRECTION ( 'NONE',  ( 1.000000000000000000, 0.000000000000000000, -0.000000000000000000 ) ) ;
#243 = CARTESIAN_POINT ( 'NONE',  ( 5.000000000000000000, 6.123233995736766282E-16, 3.000000000000000000 ) ) ;
#244 = CARTESIAN_POINT ( 'NONE',  ( 0.000000000000000000, 0.000000000000000000, 3.000000000000000000 ) ) ;
#245 = DIRECTION ( 'NONE',  ( 0.000000000000000000, 0.000000000000000000, 1.000000000000000000 ) ) ;
#246 = MECHANICAL_CONTEXT ( 'NONE', #268, 'mechanical' ) ;
#247 = DIRECTION ( 'NONE',  ( 1.000000000000000000, 0.000000000000000000, 0.000000000000000000 ) ) ;
#248 = AXIS2_PLACEMENT_3D ( 'NONE', #54, #152, #33 ) ;
#249 = CARTESIAN_POINT ( 'NONE',  ( 0.000000000000000000, 0.000000000000000000, 0.000000000000000000 ) ) ;
#250 = CC_DESIGN_APPROVAL ( #234, ( #38 ) ) ;
#251 = ORIENTED_EDGE ( 'NONE', *, *, #262, .F. ) ;
#252 = VERTEX_POINT ( 'NONE', #15 ) ;
#253 = PERSON_AND_ORGANIZATION ( #164, #273 ) ;
#254 = EDGE_LOOP ( 'NONE', ( #69, #285 ) ) ;
#255 = EDGE_LOOP ( 'NONE', ( #232, #22, #20, #233 ) ) ;
#256 = PERSON_AND_ORGANIZATION ( #164, #273 ) ;
#257 = CYLINDRICAL_SURFACE ( 'NONE', #157, 2.600000000000000089 ) ;
#258 = CIRCLE ( 'NONE', #269, 2.600000000000000089 ) ;
#259 = APPROVAL_PERSON_ORGANIZATION ( #75, #234, #263 ) ;
#260 = PERSON_AND_ORGANIZATION ( #164, #273 ) ;
#261 = CARTESIAN_POINT ( 'NONE',  ( -5.000000000000000000, 0.000000000000000000, 3.000000000000000000 ) ) ;
#262 = EDGE_CURVE ( 'NONE', #61, #252, #181, .T. ) ;
#263 = APPROVAL_ROLE ( '' ) ;
#264 = DIRECTION ( 'NONE',  ( 1.000000000000000000, 0.000000000000000000, 0.000000000000000000 ) ) ;
#265 = CARTESIAN_POINT ( 'NONE',  ( 0.000000000000000000, 0.000000000000000000, 3.000000000000000000 ) ) ;
#266 = LINE ( 'NONE', #243, #137 ) ;
#267 = CARTESIAN_POINT ( 'NONE',  ( 0.000000000000000000, 0.000000000000000000, 0.000000000000000000 ) ) ;
#268 = APPLICATION_CONTEXT ( 'configuration controlled 3d designs of mechanical parts and assemblies' ) ;
#269 = AXIS2_PLACEMENT_3D ( 'NONE', #129, #50, #197 ) ;
#270 = DIRECTION ( 'NONE',  ( 0.000000000000000000, 0.000000000000000000, 1.000000000000000000 ) ) ;
#271 = CARTESIAN_POINT ( 'NONE',  ( 0.000000000000000000, 0.000000000000000000, 3.199999999999980638 ) ) ;
#272 = AXIS2_PLACEMENT_3D ( 'NONE', #249, #138, #264 ) ;
#273 = ORGANIZATION ( 'NEURÈENÝ', 'NEURÈENÝ', '' ) ;
#274 = ADVANCED_FACE ( 'NONE', ( #110 ), #126, .F. ) ;
#275 = AXIS2_PLACEMENT_3D ( 'NONE', #271, #82, #247 ) ;
#276 = EDGE_CURVE ( 'NONE', #61, #40, #143, .T. ) ;
#277 = ORIENTED_EDGE ( 'NONE', *, *, #299, .F. ) ;
#278 = ORIENTED_EDGE ( 'NONE', *, *, #19, .F. ) ;
#279 = CC_DESIGN_PERSON_AND_ORGANIZATION_ASSIGNMENT ( #10, #215, ( #38 ) ) ;
#280 = CARTESIAN_POINT ( 'NONE',  ( 0.000000000000000000, 0.000000000000000000, 503.0000000000000000 ) ) ;
#281 = DATE_AND_TIME ( #145, #133 ) ;
#282 = EDGE_LOOP ( 'NONE', ( #91, #251, #190, #1 ) ) ;
#283 = PERSON_AND_ORGANIZATION ( #164, #273 ) ;
#284 = DIRECTION ( 'NONE',  ( 1.000000000000000000, 0.000000000000000000, 0.000000000000000000 ) ) ;
#285 = ORIENTED_EDGE ( 'NONE', *, *, #185, .T. ) ;
#286 = FACE_OUTER_BOUND ( 'NONE', #165, .T. ) ;
#287 = SECURITY_CLASSIFICATION_LEVEL ( 'unclassified' ) ;
#288 = CARTESIAN_POINT ( 'NONE',  ( -5.000000000000000000, 0.000000000000000000, 0.000000000000000000 ) ) ;
#289 = ORIENTED_EDGE ( 'NONE', *, *, #60, .F. ) ;
#290 = PERSON_AND_ORGANIZATION_ROLE ( 'design_supplier' ) ;
#291 = DIRECTION ( 'NONE',  ( -1.000000000000000000, 0.000000000000000000, 0.000000000000000000 ) ) ;
#292 = LINE ( 'NONE', #174, #222 ) ;
#293 = DIRECTION ( 'NONE',  ( 0.000000000000000000, 0.000000000000000000, -1.000000000000000000 ) ) ;
#294 = CARTESIAN_POINT ( 'NONE',  ( 0.000000000000000000, 0.000000000000000000, 3.199999999999980638 ) ) ;
#295 =( LENGTH_UNIT ( ) NAMED_UNIT ( * ) SI_UNIT ( .MILLI., .METRE. ) );
#296 = AXIS2_PLACEMENT_3D ( 'NONE', #130, #227, #131 ) ;
#297 = CARTESIAN_POINT ( 'NONE',  ( 2.799999999999999822, 0.000000000000000000, 3.199999999999980638 ) ) ;
#298 = ADVANCED_FACE ( 'NONE', ( #176, #53 ), #113, .T. ) ;
#299 = EDGE_CURVE ( 'NONE', #120, #140, #42, .T. ) ;
#300 = AXIS2_PLACEMENT_3D ( 'NONE', #265, #128, #108 ) ;
#301 = ADVANCED_FACE ( 'NONE', ( #134 ), #202, .F. ) ;
#302 = VERTEX_POINT ( 'NONE', #32 ) ;
#303 = ORIENTED_EDGE ( 'NONE', *, *, #48, .T. ) ;
#304 = ADVANCED_BREP_SHAPE_REPRESENTATION ( '0036', ( #195, #182 ), #103 ) ;
#305 = AXIS2_PLACEMENT_3D ( 'NONE', #109, #194, #172 ) ;
#306 = CALENDAR_DATE ( 2022, 7, 7 ) ;
#307 = CARTESIAN_POINT ( 'NONE',  ( 0.000000000000000000, 0.000000000000000000, 3.000000000000000000 ) ) ;
ENDSEC;
END-ISO-10303-21;
