ISO-10303-21;
HEADER;
FILE_DESCRIPTION (( 'STEP AP203' ),
    '1' );
FILE_NAME ('c912.STEP',
    '2023-02-12T11:13:31',
    ( '' ),
    ( '' ),
    'SwSTEP 2.0',
    'SolidWorks 2019',
    '' );
FILE_SCHEMA (( 'CONFIG_CONTROL_DESIGN' ));
ENDSEC;

DATA;
#1 = CARTESIAN_POINT ( 'NONE',  ( -5.500000000000000000, 0.000000000000000000, 630.0000000000000000 ) ) ;
#2 = DIRECTION ( 'NONE',  ( -1.000000000000000000, 0.000000000000000000, 0.000000000000000000 ) ) ;
#3 = APPROVAL_PERSON_ORGANIZATION ( #36, #52, #110 ) ;
#4 = CARTESIAN_POINT ( 'NONE',  ( 0.000000000000000000, 0.000000000000000000, 630.0000000000000000 ) ) ;
#5 = DIRECTION ( 'NONE',  ( 1.000000000000000000, 0.000000000000000000, 0.000000000000000000 ) ) ;
#6 = CARTESIAN_POINT ( 'NONE',  ( 0.000000000000000000, 0.000000000000000000, 630.0000000000000000 ) ) ;
#7 = PRODUCT_DEFINITION ( 'NEZNÁMÝ', '', #130, #231 ) ;
#8 = ORIENTED_EDGE ( 'NONE', *, *, #87, .T. ) ;
#9 = ORIENTED_EDGE ( 'NONE', *, *, #127, .F. ) ;
#10 = APPLICATION_CONTEXT ( 'configuration controlled 3d designs of mechanical parts and assemblies' ) ;
#11 = ORIENTED_EDGE ( 'NONE', *, *, #42, .F. ) ;
#12 = AXIS2_PLACEMENT_3D ( 'NONE', #149, #58, #220 ) ;
#13 = MECHANICAL_CONTEXT ( 'NONE', #10, 'mechanical' ) ;
#14 = PERSON_AND_ORGANIZATION_ROLE ( 'creator' ) ;
#15 = CIRCLE ( 'NONE', #230, 5.500000000000000000 ) ;
#16 = DIRECTION ( 'NONE',  ( -0.000000000000000000, -0.000000000000000000, -1.000000000000000000 ) ) ;
#17 = COORDINATED_UNIVERSAL_TIME_OFFSET ( 1, 0, .AHEAD. ) ;
#18 = CARTESIAN_POINT ( 'NONE',  ( 8.000000000000000000, 9.797174393178825657E-16, 5.000000000000000000 ) ) ;
#19 = EDGE_CURVE ( 'NONE', #24, #244, #229, .T. ) ;
#20 = APPROVAL_DATE_TIME ( #53, #171 ) ;
#21 = ORIENTED_EDGE ( 'NONE', *, *, #127, .T. ) ;
#22 = SHAPE_DEFINITION_REPRESENTATION ( #133, #172 ) ;
#23 = DATE_AND_TIME ( #208, #198 ) ;
#24 = VERTEX_POINT ( 'NONE', #18 ) ;
#25 = APPROVAL_PERSON_ORGANIZATION ( #232, #171, #72 ) ;
#26 = CARTESIAN_POINT ( 'NONE',  ( 0.000000000000000000, 0.000000000000000000, 5.000000000000000000 ) ) ;
#27 = DIRECTION ( 'NONE',  ( 0.000000000000000000, 0.000000000000000000, 1.000000000000000000 ) ) ;
#28 = DIRECTION ( 'NONE',  ( -1.000000000000000000, 0.000000000000000000, 0.000000000000000000 ) ) ;
#29 = CC_DESIGN_PERSON_AND_ORGANIZATION_ASSIGNMENT ( #70, #55, ( #166 ) ) ;
#30 = DIRECTION ( 'NONE',  ( 0.000000000000000000, 0.000000000000000000, 1.000000000000000000 ) ) ;
#31 = CARTESIAN_POINT ( 'NONE',  ( 0.000000000000000000, 0.000000000000000000, 5.000000000000000000 ) ) ;
#32 = EDGE_CURVE ( 'NONE', #141, #153, #95, .T. ) ;
#33 = APPROVAL_PERSON_ORGANIZATION ( #117, #215, #249 ) ;
#34 = ORIENTED_EDGE ( 'NONE', *, *, #32, .F. ) ;
#35 = CIRCLE ( 'NONE', #234, 5.500000000000000000 ) ;
#36 = PERSON_AND_ORGANIZATION ( #86, #144 ) ;
#37 = DIRECTION ( 'NONE',  ( 0.000000000000000000, 0.000000000000000000, 1.000000000000000000 ) ) ;
#38 = APPLICATION_CONTEXT ( 'configuration controlled 3d designs of mechanical parts and assemblies' ) ;
#39 = DATE_TIME_ROLE ( 'classification_date' ) ;
#40 = CIRCLE ( 'NONE', #102, 8.000000000000000000 ) ;
#41 = FACE_OUTER_BOUND ( 'NONE', #224, .T. ) ;
#42 = EDGE_CURVE ( 'NONE', #153, #244, #40, .T. ) ;
#43 = DIRECTION ( 'NONE',  ( -1.000000000000000000, 0.000000000000000000, 0.000000000000000000 ) ) ;
#44 = DIRECTION ( 'NONE',  ( -0.000000000000000000, -0.000000000000000000, -1.000000000000000000 ) ) ;
#45 = VECTOR ( 'NONE', #89, 1000.000000000000000 ) ;
#46 = DIRECTION ( 'NONE',  ( 1.000000000000000000, 0.000000000000000000, 0.000000000000000000 ) ) ;
#47 = ORIENTED_EDGE ( 'NONE', *, *, #219, .T. ) ;
#48 = CIRCLE ( 'NONE', #122, 8.000000000000000000 ) ;
#49 = DATE_AND_TIME ( #74, #186 ) ;
#50 = ADVANCED_FACE ( 'NONE', ( #228 ), #51, .T. ) ;
#51 = PLANE ( 'NONE',  #88 ) ;
#52 = APPROVAL ( #135, 'NEURÈENÝ' ) ;
#53 = DATE_AND_TIME ( #193, #81 ) ;
#54 = PERSON_AND_ORGANIZATION ( #86, #144 ) ;
#55 = PERSON_AND_ORGANIZATION_ROLE ( 'classification_officer' ) ;
#56 = DIRECTION ( 'NONE',  ( 1.000000000000000000, 0.000000000000000000, 0.000000000000000000 ) ) ;
#57 = FACE_OUTER_BOUND ( 'NONE', #83, .T. ) ;
#58 = DIRECTION ( 'NONE',  ( 0.000000000000000000, 0.000000000000000000, 1.000000000000000000 ) ) ;
#59 = DIRECTION ( 'NONE',  ( 0.000000000000000000, 0.000000000000000000, 1.000000000000000000 ) ) ;
#60 = EDGE_CURVE ( 'NONE', #196, #66, #191, .T. ) ;
#61 = LINE ( 'NONE', #1, #243 ) ;
#62 = ORIENTED_EDGE ( 'NONE', *, *, #142, .T. ) ;
#63 = AXIS2_PLACEMENT_3D ( 'NONE', #26, #216, #96 ) ;
#64 = CC_DESIGN_DATE_AND_TIME_ASSIGNMENT ( #109, #169, ( #7 ) ) ;
#65 = VERTEX_POINT ( 'NONE', #73 ) ;
#66 = VERTEX_POINT ( 'NONE', #176 ) ;
#67 = EDGE_LOOP ( 'NONE', ( #11, #158 ) ) ;
#68 = AXIS2_PLACEMENT_3D ( 'NONE', #182, #80, #119 ) ;
#69 = ADVANCED_FACE ( 'NONE', ( #41 ), #201, .T. ) ;
#70 = PERSON_AND_ORGANIZATION ( #86, #144 ) ;
#71 = VECTOR ( 'NONE', #210, 1000.000000000000000 ) ;
#72 = APPROVAL_ROLE ( '' ) ;
#73 = CARTESIAN_POINT ( 'NONE',  ( -5.500000000000000000, 0.000000000000000000, 5.000000000000000000 ) ) ;
#74 = CALENDAR_DATE ( 2023, 12, 2 ) ;
#75 = CARTESIAN_POINT ( 'NONE',  ( 0.000000000000000000, 0.000000000000000000, 630.0000000000000000 ) ) ;
#76 = FACE_BOUND ( 'NONE', #187, .T. ) ;
#77 = CARTESIAN_POINT ( 'NONE',  ( 0.000000000000000000, 0.000000000000000000, 0.000000000000000000 ) ) ;
#78 = UNCERTAINTY_MEASURE_WITH_UNIT (LENGTH_MEASURE( 1.000000000000000082E-05 ), #103, 'distance_accuracy_value', 'NONE');
#79 = FACE_OUTER_BOUND ( 'NONE', #143, .T. ) ;
#80 = DIRECTION ( 'NONE',  ( 0.000000000000000000, 0.000000000000000000, 1.000000000000000000 ) ) ;
#81 = LOCAL_TIME ( 12, 13, 31.00000000000000000, #209 ) ;
#82 = ORIENTED_EDGE ( 'NONE', *, *, #19, .F. ) ;
#83 = EDGE_LOOP ( 'NONE', ( #194, #235 ) ) ;
#84 = AXIS2_PLACEMENT_3D ( 'NONE', #6, #178, #2 ) ;
#85 = ORIENTED_EDGE ( 'NONE', *, *, #42, .T. ) ;
#86 = PERSON ( 'NEURÈENÝ', 'NEURÈENÝ', 'NEURÈENÝ', ('NEURÈENÝ'), ('NEURÈENÝ'), ('NEURÈENÝ') ) ;
#87 = EDGE_CURVE ( 'NONE', #196, #151, #154, .T. ) ;
#88 = AXIS2_PLACEMENT_3D ( 'NONE', #134, #37, #111 ) ;
#89 = DIRECTION ( 'NONE',  ( -0.000000000000000000, -0.000000000000000000, -1.000000000000000000 ) ) ;
#90 = ADVANCED_FACE ( 'NONE', ( #204 ), #185, .T. ) ;
#91 = PERSON_AND_ORGANIZATION_ROLE ( 'creator' ) ;
#92 = DIRECTION ( 'NONE',  ( 0.000000000000000000, 0.000000000000000000, 1.000000000000000000 ) ) ;
#93 = CC_DESIGN_DATE_AND_TIME_ASSIGNMENT ( #23, #39, ( #166 ) ) ;
#94 = COORDINATED_UNIVERSAL_TIME_OFFSET ( 1, 0, .AHEAD. ) ;
#95 = LINE ( 'NONE', #175, #71 ) ;
#96 = DIRECTION ( 'NONE',  ( -1.000000000000000000, 0.000000000000000000, 0.000000000000000000 ) ) ;
#97 = CARTESIAN_POINT ( 'NONE',  ( -8.000000000000000000, 0.000000000000000000, 5.000000000000000000 ) ) ;
#98 = CIRCLE ( 'NONE', #213, 5.500000000000000000 ) ;
#99 = DIRECTION ( 'NONE',  ( 1.000000000000000000, 0.000000000000000000, -0.000000000000000000 ) ) ;
#100 = CARTESIAN_POINT ( 'NONE',  ( 0.000000000000000000, 0.000000000000000000, 5.000000000000000000 ) ) ;
#101 = CARTESIAN_POINT ( 'NONE',  ( 0.000000000000000000, 0.000000000000000000, 5.000000000000000000 ) ) ;
#102 = AXIS2_PLACEMENT_3D ( 'NONE', #170, #92, #115 ) ;
#103 =( LENGTH_UNIT ( ) NAMED_UNIT ( * ) SI_UNIT ( .MILLI., .METRE. ) );
#104 = DIRECTION ( 'NONE',  ( 0.000000000000000000, 0.000000000000000000, 1.000000000000000000 ) ) ;
#105 = ORIENTED_EDGE ( 'NONE', *, *, #142, .F. ) ;
#106 = ORIENTED_EDGE ( 'NONE', *, *, #125, .T. ) ;
#107 = APPLICATION_PROTOCOL_DEFINITION ( 'international standard', 'config_control_design', 1994, #10 ) ;
#108 = EDGE_CURVE ( 'NONE', #141, #24, #236, .T. ) ;
#109 = DATE_AND_TIME ( #197, #255 ) ;
#110 = APPROVAL_ROLE ( '' ) ;
#111 = DIRECTION ( 'NONE',  ( 1.000000000000000000, 0.000000000000000000, -0.000000000000000000 ) ) ;
#112 = PERSON_AND_ORGANIZATION ( #86, #144 ) ;
#113 = EDGE_LOOP ( 'NONE', ( #248, #242, #47, #34 ) ) ;
#114 = COORDINATED_UNIVERSAL_TIME_OFFSET ( 1, 0, .AHEAD. ) ;
#115 = DIRECTION ( 'NONE',  ( 1.000000000000000000, 0.000000000000000000, 0.000000000000000000 ) ) ;
#116 = VECTOR ( 'NONE', #16, 1000.000000000000000 ) ;
#117 = PERSON_AND_ORGANIZATION ( #86, #144 ) ;
#118 = DIRECTION ( 'NONE',  ( 1.000000000000000000, 0.000000000000000000, 0.000000000000000000 ) ) ;
#119 = DIRECTION ( 'NONE',  ( 1.000000000000000000, 0.000000000000000000, 0.000000000000000000 ) ) ;
#120 = CARTESIAN_POINT ( 'NONE',  ( 0.000000000000000000, 0.000000000000000000, 5.000000000000000000 ) ) ;
#121 = DIRECTION ( 'NONE',  ( -0.000000000000000000, -0.000000000000000000, -1.000000000000000000 ) ) ;
#122 = AXIS2_PLACEMENT_3D ( 'NONE', #77, #240, #163 ) ;
#123 = CC_DESIGN_PERSON_AND_ORGANIZATION_ASSIGNMENT ( #54, #14, ( #130 ) ) ;
#124 = CARTESIAN_POINT ( 'NONE',  ( 8.000000000000000000, 9.797174393178825657E-16, 0.000000000000000000 ) ) ;
#125 = EDGE_CURVE ( 'NONE', #151, #196, #98, .T. ) ;
#126 = EDGE_LOOP ( 'NONE', ( #106, #8 ) ) ;
#127 = EDGE_CURVE ( 'NONE', #65, #66, #15, .T. ) ;
#128 =( NAMED_UNIT ( * ) SI_UNIT ( $, .STERADIAN. ) SOLID_ANGLE_UNIT ( ) );
#129 = ORIENTED_EDGE ( 'NONE', *, *, #60, .F. ) ;
#130 = PRODUCT_DEFINITION_FORMATION_WITH_SPECIFIED_SOURCE ( 'LIBOVOLNÝ', '', #233, .NOT_KNOWN. ) ;
#131 = SECURITY_CLASSIFICATION_LEVEL ( 'unclassified' ) ;
#132 = APPROVAL_DATE_TIME ( #49, #215 ) ;
#133 = PRODUCT_DEFINITION_SHAPE ( 'NONE', 'NONE',  #7 ) ;
#134 = CARTESIAN_POINT ( 'NONE',  ( 0.000000000000000000, 0.000000000000000000, 630.0000000000000000 ) ) ;
#135 = APPROVAL_STATUS ( 'not_yet_approved' ) ;
#136 = CC_DESIGN_PERSON_AND_ORGANIZATION_ASSIGNMENT ( #254, #173, ( #233 ) ) ;
#137 =( GEOMETRIC_REPRESENTATION_CONTEXT ( 3 ) GLOBAL_UNCERTAINTY_ASSIGNED_CONTEXT ( ( #78 ) ) GLOBAL_UNIT_ASSIGNED_CONTEXT ( ( #103, #188, #128 ) ) REPRESENTATION_CONTEXT ( 'NONE', 'WORKASPACE' ) );
#138 = PERSON_AND_ORGANIZATION ( #86, #144 ) ;
#139 = CARTESIAN_POINT ( 'NONE',  ( 8.000000000000000000, 9.797174393178825657E-16, 5.000000000000000000 ) ) ;
#140 = CALENDAR_DATE ( 2023, 12, 2 ) ;
#141 = VERTEX_POINT ( 'NONE', #97 ) ;
#142 = EDGE_CURVE ( 'NONE', #151, #65, #61, .T. ) ;
#143 = EDGE_LOOP ( 'NONE', ( #159, #247, #156, #105 ) ) ;
#144 = ORGANIZATION ( 'NEURÈENÝ', 'NEURÈENÝ', '' ) ;
#145 = FACE_OUTER_BOUND ( 'NONE', #189, .T. ) ;
#146 = PLANE ( 'NONE',  #174 ) ;
#147 = MANIFOLD_SOLID_BREP ( 'Pøidat vysunutím3', #177 ) ;
#148 = AXIS2_PLACEMENT_3D ( 'NONE', #164, #121, #43 ) ;
#149 = CARTESIAN_POINT ( 'NONE',  ( 0.000000000000000000, 0.000000000000000000, 0.000000000000000000 ) ) ;
#150 = PLANE ( 'NONE',  #12 ) ;
#151 = VERTEX_POINT ( 'NONE', #165 ) ;
#152 = ORIENTED_EDGE ( 'NONE', *, *, #183, .F. ) ;
#153 = VERTEX_POINT ( 'NONE', #237 ) ;
#154 = CIRCLE ( 'NONE', #184, 5.500000000000000000 ) ;
#155 = COORDINATED_UNIVERSAL_TIME_OFFSET ( 1, 0, .AHEAD. ) ;
#156 = ORIENTED_EDGE ( 'NONE', *, *, #183, .T. ) ;
#157 = LOCAL_TIME ( 12, 13, 31.00000000000000000, #114 ) ;
#158 = ORIENTED_EDGE ( 'NONE', *, *, #219, .F. ) ;
#159 = ORIENTED_EDGE ( 'NONE', *, *, #87, .F. ) ;
#160 = CC_DESIGN_PERSON_AND_ORGANIZATION_ASSIGNMENT ( #138, #212, ( #130 ) ) ;
#161 = CARTESIAN_POINT ( 'NONE',  ( 0.000000000000000000, 0.000000000000000000, 630.0000000000000000 ) ) ;
#162 = DIRECTION ( 'NONE',  ( -0.000000000000000000, -0.000000000000000000, -1.000000000000000000 ) ) ;
#163 = DIRECTION ( 'NONE',  ( 1.000000000000000000, 0.000000000000000000, 0.000000000000000000 ) ) ;
#164 = CARTESIAN_POINT ( 'NONE',  ( 0.000000000000000000, 0.000000000000000000, 5.000000000000000000 ) ) ;
#165 = CARTESIAN_POINT ( 'NONE',  ( -5.500000000000000000, 0.000000000000000000, 630.0000000000000000 ) ) ;
#166 = SECURITY_CLASSIFICATION ( '', '', #131 ) ;
#167 = ADVANCED_FACE ( 'NONE', ( #145 ), #202, .T. ) ;
#168 = ORIENTED_EDGE ( 'NONE', *, *, #125, .F. ) ;
#169 = DATE_TIME_ROLE ( 'creation_date' ) ;
#170 = CARTESIAN_POINT ( 'NONE',  ( 0.000000000000000000, 0.000000000000000000, 0.000000000000000000 ) ) ;
#171 = APPROVAL ( #227, 'NEURÈENÝ' ) ;
#172 = ADVANCED_BREP_SHAPE_REPRESENTATION ( 'c912', ( #147, #250 ), #137 ) ;
#173 = PERSON_AND_ORGANIZATION_ROLE ( 'design_owner' ) ;
#174 = AXIS2_PLACEMENT_3D ( 'NONE', #100, #217, #99 ) ;
#175 = CARTESIAN_POINT ( 'NONE',  ( -8.000000000000000000, 0.000000000000000000, 5.000000000000000000 ) ) ;
#176 = CARTESIAN_POINT ( 'NONE',  ( 5.500000000000000000, 6.735557395310442023E-16, 5.000000000000000000 ) ) ;
#177 = CLOSED_SHELL ( 'NONE', ( #200, #90, #69, #211, #222, #167, #50 ) ) ;
#178 = DIRECTION ( 'NONE',  ( -0.000000000000000000, -0.000000000000000000, -1.000000000000000000 ) ) ;
#179 = EDGE_CURVE ( 'NONE', #24, #141, #207, .T. ) ;
#180 = CC_DESIGN_SECURITY_CLASSIFICATION ( #166, ( #130 ) ) ;
#181 = CYLINDRICAL_SURFACE ( 'NONE', #223, 5.500000000000000000 ) ;
#182 = CARTESIAN_POINT ( 'NONE',  ( 0.000000000000000000, 0.000000000000000000, 5.000000000000000000 ) ) ;
#183 = EDGE_CURVE ( 'NONE', #66, #65, #35, .T. ) ;
#184 = AXIS2_PLACEMENT_3D ( 'NONE', #75, #199, #118 ) ;
#185 = CYLINDRICAL_SURFACE ( 'NONE', #63, 8.000000000000000000 ) ;
#186 = LOCAL_TIME ( 12, 13, 31.00000000000000000, #94 ) ;
#187 = EDGE_LOOP ( 'NONE', ( #9, #152 ) ) ;
#188 =( NAMED_UNIT ( * ) PLANE_ANGLE_UNIT ( ) SI_UNIT ( $, .RADIAN. ) );
#189 = EDGE_LOOP ( 'NONE', ( #129, #168, #62, #21 ) ) ;
#190 = APPROVAL_DATE_TIME ( #195, #52 ) ;
#191 = LINE ( 'NONE', #253, #45 ) ;
#192 = AXIS2_PLACEMENT_3D ( 'NONE', #120, #30, #5 ) ;
#193 = CALENDAR_DATE ( 2023, 12, 2 ) ;
#194 = ORIENTED_EDGE ( 'NONE', *, *, #108, .T. ) ;
#195 = DATE_AND_TIME ( #140, #157 ) ;
#196 = VERTEX_POINT ( 'NONE', #238 ) ;
#197 = CALENDAR_DATE ( 2023, 12, 2 ) ;
#198 = LOCAL_TIME ( 12, 13, 31.00000000000000000, #155 ) ;
#199 = DIRECTION ( 'NONE',  ( 0.000000000000000000, 0.000000000000000000, 1.000000000000000000 ) ) ;
#200 = ADVANCED_FACE ( 'NONE', ( #79 ), #181, .T. ) ;
#201 = CYLINDRICAL_SURFACE ( 'NONE', #148, 8.000000000000000000 ) ;
#202 = CYLINDRICAL_SURFACE ( 'NONE', #84, 5.500000000000000000 ) ;
#203 = CC_DESIGN_APPROVAL ( #215, ( #7 ) ) ;
#204 = FACE_OUTER_BOUND ( 'NONE', #113, .T. ) ;
#205 = DIRECTION ( 'NONE',  ( 1.000000000000000000, 0.000000000000000000, 0.000000000000000000 ) ) ;
#206 = ORIENTED_EDGE ( 'NONE', *, *, #32, .T. ) ;
#207 = CIRCLE ( 'NONE', #192, 8.000000000000000000 ) ;
#208 = CALENDAR_DATE ( 2023, 12, 2 ) ;
#209 = COORDINATED_UNIVERSAL_TIME_OFFSET ( 1, 0, .AHEAD. ) ;
#210 = DIRECTION ( 'NONE',  ( -0.000000000000000000, -0.000000000000000000, -1.000000000000000000 ) ) ;
#211 = ADVANCED_FACE ( 'NONE', ( #76, #57 ), #146, .T. ) ;
#212 = PERSON_AND_ORGANIZATION_ROLE ( 'design_supplier' ) ;
#213 = AXIS2_PLACEMENT_3D ( 'NONE', #161, #27, #218 ) ;
#214 = CC_DESIGN_APPROVAL ( #171, ( #130 ) ) ;
#215 = APPROVAL ( #252, 'NEURÈENÝ' ) ;
#216 = DIRECTION ( 'NONE',  ( -0.000000000000000000, -0.000000000000000000, -1.000000000000000000 ) ) ;
#217 = DIRECTION ( 'NONE',  ( 0.000000000000000000, 0.000000000000000000, 1.000000000000000000 ) ) ;
#218 = DIRECTION ( 'NONE',  ( 1.000000000000000000, 0.000000000000000000, 0.000000000000000000 ) ) ;
#219 = EDGE_CURVE ( 'NONE', #244, #153, #48, .T. ) ;
#220 = DIRECTION ( 'NONE',  ( 1.000000000000000000, 0.000000000000000000, -0.000000000000000000 ) ) ;
#221 = CARTESIAN_POINT ( 'NONE',  ( 0.000000000000000000, 0.000000000000000000, 0.000000000000000000 ) ) ;
#222 = ADVANCED_FACE ( 'NONE', ( #239 ), #150, .F. ) ;
#223 = AXIS2_PLACEMENT_3D ( 'NONE', #4, #44, #28 ) ;
#224 = EDGE_LOOP ( 'NONE', ( #82, #225, #206, #85 ) ) ;
#225 = ORIENTED_EDGE ( 'NONE', *, *, #108, .F. ) ;
#226 = APPLICATION_PROTOCOL_DEFINITION ( 'international standard', 'config_control_design', 1994, #38 ) ;
#227 = APPROVAL_STATUS ( 'not_yet_approved' ) ;
#228 = FACE_OUTER_BOUND ( 'NONE', #126, .T. ) ;
#229 = LINE ( 'NONE', #139, #116 ) ;
#230 = AXIS2_PLACEMENT_3D ( 'NONE', #31, #59, #56 ) ;
#231 = DESIGN_CONTEXT ( 'detailed design', #38, 'design' ) ;
#232 = PERSON_AND_ORGANIZATION ( #86, #144 ) ;
#233 = PRODUCT ( 'c912', 'c912', '', ( #13 ) ) ;
#234 = AXIS2_PLACEMENT_3D ( 'NONE', #101, #241, #205 ) ;
#235 = ORIENTED_EDGE ( 'NONE', *, *, #179, .T. ) ;
#236 = CIRCLE ( 'NONE', #68, 8.000000000000000000 ) ;
#237 = CARTESIAN_POINT ( 'NONE',  ( -8.000000000000000000, 0.000000000000000000, 0.000000000000000000 ) ) ;
#238 = CARTESIAN_POINT ( 'NONE',  ( 5.500000000000000000, 6.735557395310442023E-16, 630.0000000000000000 ) ) ;
#239 = FACE_OUTER_BOUND ( 'NONE', #67, .T. ) ;
#240 = DIRECTION ( 'NONE',  ( 0.000000000000000000, 0.000000000000000000, 1.000000000000000000 ) ) ;
#241 = DIRECTION ( 'NONE',  ( 0.000000000000000000, 0.000000000000000000, 1.000000000000000000 ) ) ;
#242 = ORIENTED_EDGE ( 'NONE', *, *, #19, .T. ) ;
#243 = VECTOR ( 'NONE', #162, 1000.000000000000000 ) ;
#244 = VERTEX_POINT ( 'NONE', #124 ) ;
#245 = PRODUCT_RELATED_PRODUCT_CATEGORY ( 'detail', '', ( #233 ) ) ;
#246 = CC_DESIGN_APPROVAL ( #52, ( #166 ) ) ;
#247 = ORIENTED_EDGE ( 'NONE', *, *, #60, .T. ) ;
#248 = ORIENTED_EDGE ( 'NONE', *, *, #179, .F. ) ;
#249 = APPROVAL_ROLE ( '' ) ;
#250 = AXIS2_PLACEMENT_3D ( 'NONE', #221, #104, #46 ) ;
#251 = CC_DESIGN_PERSON_AND_ORGANIZATION_ASSIGNMENT ( #112, #91, ( #7 ) ) ;
#252 = APPROVAL_STATUS ( 'not_yet_approved' ) ;
#253 = CARTESIAN_POINT ( 'NONE',  ( 5.500000000000000000, 6.735557395310442023E-16, 630.0000000000000000 ) ) ;
#254 = PERSON_AND_ORGANIZATION ( #86, #144 ) ;
#255 = LOCAL_TIME ( 12, 13, 31.00000000000000000, #17 ) ;
ENDSEC;
END-ISO-10303-21;
