ISO-10303-21;
HEADER;
FILE_DESCRIPTION (( 'STEP AP203' ),
    '1' );
FILE_NAME ('0e7b.STEP',
    '2022-07-07T09:38:21',
    ( '' ),
    ( '' ),
    'SwSTEP 2.0',
    'SolidWorks 2019',
    '' );
FILE_SCHEMA (( 'CONFIG_CONTROL_DESIGN' ));
ENDSEC;

DATA;
#1 = AXIS2_PLACEMENT_3D ( 'NONE', #47, #117, #120 ) ;
#2 = CARTESIAN_POINT ( 'NONE',  ( 0.000000000000000000, 0.000000000000000000, 7.199999999999984190 ) ) ;
#3 = APPLICATION_CONTEXT ( 'configuration controlled 3d designs of mechanical parts and assemblies' ) ;
#4 = ORIENTED_EDGE ( 'NONE', *, *, #191, .F. ) ;
#5 = ORIENTED_EDGE ( 'NONE', *, *, #237, .F. ) ;
#6 = COORDINATED_UNIVERSAL_TIME_OFFSET ( 1, 0, .AHEAD. ) ;
#7 = ORIENTED_EDGE ( 'NONE', *, *, #245, .F. ) ;
#8 = DATE_AND_TIME ( #55, #94 ) ;
#9 = ORIENTED_EDGE ( 'NONE', *, *, #126, .F. ) ;
#10 = VERTEX_POINT ( 'NONE', #279 ) ;
#11 = CALENDAR_DATE ( 2022, 7, 7 ) ;
#12 = DIRECTION ( 'NONE',  ( 0.000000000000000000, 0.000000000000000000, 1.000000000000000000 ) ) ;
#13 = SECURITY_CLASSIFICATION_LEVEL ( 'unclassified' ) ;
#14 = CC_DESIGN_PERSON_AND_ORGANIZATION_ASSIGNMENT ( #203, #226, ( #306 ) ) ;
#15 = DIRECTION ( 'NONE',  ( -0.000000000000000000, -0.000000000000000000, -1.000000000000000000 ) ) ;
#16 = CIRCLE ( 'NONE', #258, 8.000000000000000000 ) ;
#17 = FACE_OUTER_BOUND ( 'NONE', #196, .T. ) ;
#18 = DIRECTION ( 'NONE',  ( 0.000000000000000000, 0.000000000000000000, 1.000000000000000000 ) ) ;
#19 = CC_DESIGN_DATE_AND_TIME_ASSIGNMENT ( #8, #103, ( #297 ) ) ;
#20 = CC_DESIGN_APPROVAL ( #96, ( #77 ) ) ;
#21 = DIRECTION ( 'NONE',  ( 0.000000000000000000, 0.000000000000000000, 1.000000000000000000 ) ) ;
#22 = CYLINDRICAL_SURFACE ( 'NONE', #280, 8.000000000000000000 ) ;
#23 = EDGE_CURVE ( 'NONE', #75, #124, #65, .T. ) ;
#24 = DIRECTION ( 'NONE',  ( 0.000000000000000000, 0.000000000000000000, 1.000000000000000000 ) ) ;
#25 = CC_DESIGN_SECURITY_CLASSIFICATION ( #297, ( #306 ) ) ;
#26 = CARTESIAN_POINT ( 'NONE',  ( -8.000000000000000000, 0.000000000000000000, 407.0000000000000000 ) ) ;
#27 = COORDINATED_UNIVERSAL_TIME_OFFSET ( 1, 0, .AHEAD. ) ;
#28 = ORIENTED_EDGE ( 'NONE', *, *, #188, .F. ) ;
#29 = AXIS2_PLACEMENT_3D ( 'NONE', #255, #107, #87 ) ;
#30 = EDGE_LOOP ( 'NONE', ( #201, #125, #225, #56 ) ) ;
#31 = CC_DESIGN_PERSON_AND_ORGANIZATION_ASSIGNMENT ( #250, #71, ( #77 ) ) ;
#32 = SHAPE_DEFINITION_REPRESENTATION ( #45, #171 ) ;
#33 = VERTEX_POINT ( 'NONE', #206 ) ;
#34 = APPROVAL_DATE_TIME ( #179, #96 ) ;
#35 = DIRECTION ( 'NONE',  ( 1.000000000000000000, 0.000000000000000000, 0.000000000000000000 ) ) ;
#36 = DIRECTION ( 'NONE',  ( -0.000000000000000000, -0.000000000000000000, -1.000000000000000000 ) ) ;
#37 = DIRECTION ( 'NONE',  ( 0.000000000000000000, 0.000000000000000000, 1.000000000000000000 ) ) ;
#38 = LOCAL_TIME ( 11, 38, 21.00000000000000000, #27 ) ;
#39 = DIRECTION ( 'NONE',  ( -0.000000000000000000, -0.000000000000000000, -1.000000000000000000 ) ) ;
#40 = ADVANCED_FACE ( 'NONE', ( #131, #209 ), #104, .T. ) ;
#41 = DIRECTION ( 'NONE',  ( 0.000000000000000000, 0.000000000000000000, 1.000000000000000000 ) ) ;
#42 = APPLICATION_PROTOCOL_DEFINITION ( 'international standard', 'config_control_design', 1994, #141 ) ;
#43 = CIRCLE ( 'NONE', #111, 11.00000000000000000 ) ;
#44 = CC_DESIGN_PERSON_AND_ORGANIZATION_ASSIGNMENT ( #288, #81, ( #306 ) ) ;
#45 = PRODUCT_DEFINITION_SHAPE ( 'NONE', 'NONE',  #77 ) ;
#46 = CARTESIAN_POINT ( 'NONE',  ( 0.000000000000000000, 0.000000000000000000, 407.0000000000000000 ) ) ;
#47 = CARTESIAN_POINT ( 'NONE',  ( 0.000000000000000000, 0.000000000000000000, 0.000000000000000000 ) ) ;
#48 = AXIS2_PLACEMENT_3D ( 'NONE', #234, #41, #129 ) ;
#49 = CARTESIAN_POINT ( 'NONE',  ( 0.000000000000000000, 0.000000000000000000, 0.000000000000000000 ) ) ;
#50 = DESIGN_CONTEXT ( 'detailed design', #3, 'design' ) ;
#51 = EDGE_CURVE ( 'NONE', #10, #175, #152, .T. ) ;
#52 = VERTEX_POINT ( 'NONE', #108 ) ;
#53 = AXIS2_PLACEMENT_3D ( 'NONE', #49, #224, #227 ) ;
#54 = EDGE_LOOP ( 'NONE', ( #78, #58 ) ) ;
#55 = CALENDAR_DATE ( 2022, 7, 7 ) ;
#56 = ORIENTED_EDGE ( 'NONE', *, *, #93, .F. ) ;
#57 = APPROVAL_ROLE ( '' ) ;
#58 = ORIENTED_EDGE ( 'NONE', *, *, #199, .T. ) ;
#59 = FACE_OUTER_BOUND ( 'NONE', #246, .T. ) ;
#60 = CIRCLE ( 'NONE', #1, 11.00000000000000000 ) ;
#61 = APPROVAL ( #251, 'NEURÈENÝ' ) ;
#62 = DIRECTION ( 'NONE',  ( 1.000000000000000000, 0.000000000000000000, -0.000000000000000000 ) ) ;
#63 = DIRECTION ( 'NONE',  ( -0.000000000000000000, -0.000000000000000000, -1.000000000000000000 ) ) ;
#64 = DIRECTION ( 'NONE',  ( 1.000000000000000000, 0.000000000000000000, 0.000000000000000000 ) ) ;
#65 = CIRCLE ( 'NONE', #29, 11.00000000000000000 ) ;
#66 = ADVANCED_FACE ( 'NONE', ( #184 ), #284, .T. ) ;
#67 = CC_DESIGN_APPROVAL ( #278, ( #297 ) ) ;
#68 = CARTESIAN_POINT ( 'NONE',  ( 0.000000000000000000, 0.000000000000000000, 0.000000000000000000 ) ) ;
#69 = ADVANCED_FACE ( 'NONE', ( #59 ), #197, .F. ) ;
#70 = AXIS2_PLACEMENT_3D ( 'NONE', #155, #63, #205 ) ;
#71 = PERSON_AND_ORGANIZATION_ROLE ( 'creator' ) ;
#72 = CARTESIAN_POINT ( 'NONE',  ( 8.000000000000000000, 9.797174393178825657E-16, 407.0000000000000000 ) ) ;
#73 = CC_DESIGN_PERSON_AND_ORGANIZATION_ASSIGNMENT ( #294, #177, ( #297 ) ) ;
#74 = AXIS2_PLACEMENT_3D ( 'NONE', #256, #37, #213 ) ;
#75 = VERTEX_POINT ( 'NONE', #105 ) ;
#76 = EDGE_LOOP ( 'NONE', ( #134, #221 ) ) ;
#77 = PRODUCT_DEFINITION ( 'NEZNÁMÝ', '', #306, #50 ) ;
#78 = ORIENTED_EDGE ( 'NONE', *, *, #188, .T. ) ;
#79 = DATE_AND_TIME ( #11, #38 ) ;
#80 = ORIENTED_EDGE ( 'NONE', *, *, #23, .F. ) ;
#81 = PERSON_AND_ORGANIZATION_ROLE ( 'design_supplier' ) ;
#82 = ORIENTED_EDGE ( 'NONE', *, *, #114, .F. ) ;
#83 = APPROVAL_ROLE ( '' ) ;
#84 = DIRECTION ( 'NONE',  ( 0.000000000000000000, 0.000000000000000000, 1.000000000000000000 ) ) ;
#85 = DIRECTION ( 'NONE',  ( 1.000000000000000000, 0.000000000000000000, 0.000000000000000000 ) ) ;
#86 = DIRECTION ( 'NONE',  ( 1.000000000000000000, 0.000000000000000000, 0.000000000000000000 ) ) ;
#87 = DIRECTION ( 'NONE',  ( 1.000000000000000000, 0.000000000000000000, 0.000000000000000000 ) ) ;
#88 = CARTESIAN_POINT ( 'NONE',  ( 11.00000000000000000, 1.347111479062088405E-15, 7.000000000000000000 ) ) ;
#89 = LOCAL_TIME ( 11, 38, 21.00000000000000000, #244 ) ;
#90 =( LENGTH_UNIT ( ) NAMED_UNIT ( * ) SI_UNIT ( .MILLI., .METRE. ) );
#91 = CARTESIAN_POINT ( 'NONE',  ( 8.200000000000001066, 0.000000000000000000, 7.199999999999984190 ) ) ;
#92 = APPROVAL_PERSON_ORGANIZATION ( #277, #61, #83 ) ;
#93 = EDGE_CURVE ( 'NONE', #236, #10, #158, .T. ) ;
#94 = LOCAL_TIME ( 11, 38, 21.00000000000000000, #127 ) ;
#95 = ORIENTED_EDGE ( 'NONE', *, *, #156, .T. ) ;
#96 = APPROVAL ( #240, 'NEURÈENÝ' ) ;
#97 = ORIENTED_EDGE ( 'NONE', *, *, #51, .F. ) ;
#98 = DATE_TIME_ROLE ( 'creation_date' ) ;
#99 = ORIENTED_EDGE ( 'NONE', *, *, #267, .T. ) ;
#100 = CALENDAR_DATE ( 2022, 7, 7 ) ;
#101 = EDGE_LOOP ( 'NONE', ( #182, #259 ) ) ;
#102 = MANIFOLD_SOLID_BREP ( 'Zaoblit1', #295 ) ;
#103 = DATE_TIME_ROLE ( 'classification_date' ) ;
#104 = PLANE ( 'NONE',  #247 ) ;
#105 = CARTESIAN_POINT ( 'NONE',  ( -11.00000000000000000, 0.000000000000000000, 7.000000000000000000 ) ) ;
#106 = DIRECTION ( 'NONE',  ( 1.000000000000000000, 0.000000000000000000, 0.000000000000000000 ) ) ;
#107 = DIRECTION ( 'NONE',  ( 0.000000000000000000, 0.000000000000000000, 1.000000000000000000 ) ) ;
#108 = CARTESIAN_POINT ( 'NONE',  ( -11.00000000000000000, 0.000000000000000000, 0.000000000000000000 ) ) ;
#109 = APPLICATION_PROTOCOL_DEFINITION ( 'international standard', 'config_control_design', 1994, #3 ) ;
#110 = LINE ( 'NONE', #142, #153 ) ;
#111 = AXIS2_PLACEMENT_3D ( 'NONE', #243, #24, #217 ) ;
#112 = AXIS2_PLACEMENT_3D ( 'NONE', #68, #307, #260 ) ;
#113 = APPROVAL_ROLE ( '' ) ;
#114 = EDGE_CURVE ( 'NONE', #124, #75, #137, .T. ) ;
#115 = CARTESIAN_POINT ( 'NONE',  ( 0.000000000000000000, 0.000000000000000000, 407.0000000000000000 ) ) ;
#116 = DIRECTION ( 'NONE',  ( 0.000000000000000000, 0.000000000000000000, -1.000000000000000000 ) ) ;
#117 = DIRECTION ( 'NONE',  ( 0.000000000000000000, 0.000000000000000000, 1.000000000000000000 ) ) ;
#118 =( NAMED_UNIT ( * ) SI_UNIT ( $, .STERADIAN. ) SOLID_ANGLE_UNIT ( ) );
#119 = EDGE_CURVE ( 'NONE', #10, #145, #263, .T. ) ;
#120 = DIRECTION ( 'NONE',  ( 1.000000000000000000, 0.000000000000000000, 0.000000000000000000 ) ) ;
#121 = COORDINATED_UNIVERSAL_TIME_OFFSET ( 1, 0, .AHEAD. ) ;
#122 = UNCERTAINTY_MEASURE_WITH_UNIT (LENGTH_MEASURE( 1.000000000000000082E-05 ), #90, 'distance_accuracy_value', 'NONE');
#123 = ORIENTED_EDGE ( 'NONE', *, *, #211, .F. ) ;
#124 = VERTEX_POINT ( 'NONE', #88 ) ;
#125 = ORIENTED_EDGE ( 'NONE', *, *, #126, .T. ) ;
#126 = EDGE_CURVE ( 'NONE', #272, #175, #303, .T. ) ;
#127 = COORDINATED_UNIVERSAL_TIME_OFFSET ( 1, 0, .AHEAD. ) ;
#128 = CARTESIAN_POINT ( 'NONE',  ( 0.000000000000000000, 0.000000000000000000, 7.000000000000000000 ) ) ;
#129 = DIRECTION ( 'NONE',  ( 1.000000000000000000, 0.000000000000000000, 0.000000000000000000 ) ) ;
#130 = CC_DESIGN_PERSON_AND_ORGANIZATION_ASSIGNMENT ( #167, #135, ( #257 ) ) ;
#131 = FACE_BOUND ( 'NONE', #76, .T. ) ;
#132 = CC_DESIGN_APPROVAL ( #61, ( #306 ) ) ;
#133 = CARTESIAN_POINT ( 'NONE',  ( 0.000000000000000000, 0.000000000000000000, 7.000000000000000000 ) ) ;
#134 = ORIENTED_EDGE ( 'NONE', *, *, #191, .T. ) ;
#135 = PERSON_AND_ORGANIZATION_ROLE ( 'design_owner' ) ;
#136 = CC_DESIGN_DATE_AND_TIME_ASSIGNMENT ( #79, #98, ( #77 ) ) ;
#137 = CIRCLE ( 'NONE', #302, 11.00000000000000000 ) ;
#138 = LOCAL_TIME ( 11, 38, 21.00000000000000000, #6 ) ;
#139 = DIRECTION ( 'NONE',  ( -1.000000000000000000, 0.000000000000000000, 0.000000000000000000 ) ) ;
#140 = DIRECTION ( 'NONE',  ( 1.000000000000000000, 0.000000000000000000, -0.000000000000000000 ) ) ;
#141 = APPLICATION_CONTEXT ( 'configuration controlled 3d designs of mechanical parts and assemblies' ) ;
#142 = CARTESIAN_POINT ( 'NONE',  ( 11.00000000000000000, 1.347111479062088405E-15, 7.000000000000000000 ) ) ;
#143 = AXIS2_PLACEMENT_3D ( 'NONE', #304, #12, #86 ) ;
#144 = CYLINDRICAL_SURFACE ( 'NONE', #290, 8.000000000000000000 ) ;
#145 = VERTEX_POINT ( 'NONE', #186 ) ;
#146 = AXIS2_PLACEMENT_3D ( 'NONE', #208, #39, #281 ) ;
#147 = CIRCLE ( 'NONE', #74, 8.000000000000000000 ) ;
#148 = ORIENTED_EDGE ( 'NONE', *, *, #253, .F. ) ;
#149 = CALENDAR_DATE ( 2022, 7, 7 ) ;
#150 = EDGE_CURVE ( 'NONE', #145, #291, #271, .T. ) ;
#151 = ORIENTED_EDGE ( 'NONE', *, *, #51, .T. ) ;
#152 = CIRCLE ( 'NONE', #143, 8.000000000000000000 ) ;
#153 = VECTOR ( 'NONE', #289, 1000.000000000000000 ) ;
#154 = CARTESIAN_POINT ( 'NONE',  ( 0.000000000000000000, 0.000000000000000000, 7.199999999999984190 ) ) ;
#155 = CARTESIAN_POINT ( 'NONE',  ( 0.000000000000000000, 0.000000000000000000, 7.000000000000000000 ) ) ;
#156 = EDGE_CURVE ( 'NONE', #75, #52, #282, .T. ) ;
#157 = DIRECTION ( 'NONE',  ( 0.000000000000000000, 0.000000000000000000, 1.000000000000000000 ) ) ;
#158 = LINE ( 'NONE', #210, #241 ) ;
#159 = APPROVAL_PERSON_ORGANIZATION ( #249, #278, #57 ) ;
#160 = FACE_OUTER_BOUND ( 'NONE', #228, .T. ) ;
#161 = DIRECTION ( 'NONE',  ( 1.224646799147353207E-16, 1.000000000000000000, -0.000000000000000000 ) ) ;
#162 = DIRECTION ( 'NONE',  ( -0.000000000000000000, -0.000000000000000000, -1.000000000000000000 ) ) ;
#163 = DIRECTION ( 'NONE',  ( -1.000000000000000000, 0.000000000000000000, 0.000000000000000000 ) ) ;
#164 = AXIS2_PLACEMENT_3D ( 'NONE', #305, #161, #239 ) ;
#165 = FACE_OUTER_BOUND ( 'NONE', #30, .T. ) ;
#166 = PLANE ( 'NONE',  #192 ) ;
#167 = PERSON_AND_ORGANIZATION ( #293, #252 ) ;
#168 = DIRECTION ( 'NONE',  ( 0.000000000000000000, 0.000000000000000000, 1.000000000000000000 ) ) ;
#169 = FACE_OUTER_BOUND ( 'NONE', #178, .T. ) ;
#170 = ORIENTED_EDGE ( 'NONE', *, *, #267, .F. ) ;
#171 = ADVANCED_BREP_SHAPE_REPRESENTATION ( '0e7b', ( #102, #112 ), #235 ) ;
#172 = ORIENTED_EDGE ( 'NONE', *, *, #150, .F. ) ;
#173 = VECTOR ( 'NONE', #36, 1000.000000000000000 ) ;
#174 = AXIS2_PLACEMENT_3D ( 'NONE', #232, #15, #106 ) ;
#175 = VERTEX_POINT ( 'NONE', #285 ) ;
#176 = ADVANCED_FACE ( 'NONE', ( #261 ), #216, .F. ) ;
#177 = PERSON_AND_ORGANIZATION_ROLE ( 'classification_officer' ) ;
#178 = EDGE_LOOP ( 'NONE', ( #7, #5 ) ) ;
#179 = DATE_AND_TIME ( #100, #89 ) ;
#180 = CARTESIAN_POINT ( 'NONE',  ( 8.000000000000000000, 9.797174393178825657E-16, 407.0000000000000000 ) ) ;
#181 = CIRCLE ( 'NONE', #187, 0.1999999999999996503 ) ;
#182 = ORIENTED_EDGE ( 'NONE', *, *, #23, .T. ) ;
#183 = DIRECTION ( 'NONE',  ( -0.000000000000000000, -0.000000000000000000, -1.000000000000000000 ) ) ;
#184 = FACE_OUTER_BOUND ( 'NONE', #276, .T. ) ;
#185 = CYLINDRICAL_SURFACE ( 'NONE', #220, 11.00000000000000000 ) ;
#186 = CARTESIAN_POINT ( 'NONE',  ( -8.200000000000001066, 1.004210375300829674E-15, 6.999999999999992006 ) ) ;
#187 = AXIS2_PLACEMENT_3D ( 'NONE', #91, #195, #116 ) ;
#188 = EDGE_CURVE ( 'NONE', #236, #272, #242, .T. ) ;
#189 = CARTESIAN_POINT ( 'NONE',  ( 0.000000000000000000, 0.000000000000000000, 7.000000000000000000 ) ) ;
#190 = CARTESIAN_POINT ( 'NONE',  ( 0.000000000000000000, 0.000000000000000000, 407.0000000000000000 ) ) ;
#191 = EDGE_CURVE ( 'NONE', #291, #145, #218, .T. ) ;
#192 = AXIS2_PLACEMENT_3D ( 'NONE', #46, #21, #140 ) ;
#193 = MECHANICAL_CONTEXT ( 'NONE', #141, 'mechanical' ) ;
#194 = FACE_OUTER_BOUND ( 'NONE', #54, .T. ) ;
#195 = DIRECTION ( 'NONE',  ( 0.000000000000000000, -1.000000000000000000, 0.000000000000000000 ) ) ;
#196 = EDGE_LOOP ( 'NONE', ( #170, #80, #95, #231 ) ) ;
#197 = TOROIDAL_SURFACE ( 'NONE', #229, 8.200000000000001066, 0.2000000000000000111 ) ;
#198 = APPROVAL_PERSON_ORGANIZATION ( #212, #96, #113 ) ;
#199 = EDGE_CURVE ( 'NONE', #272, #236, #147, .T. ) ;
#200 = ORIENTED_EDGE ( 'NONE', *, *, #237, .T. ) ;
#201 = ORIENTED_EDGE ( 'NONE', *, *, #199, .F. ) ;
#202 = ORIENTED_EDGE ( 'NONE', *, *, #211, .T. ) ;
#203 = PERSON_AND_ORGANIZATION ( #293, #252 ) ;
#204 = DATE_AND_TIME ( #149, #138 ) ;
#205 = DIRECTION ( 'NONE',  ( 1.000000000000000000, 0.000000000000000000, 0.000000000000000000 ) ) ;
#206 = CARTESIAN_POINT ( 'NONE',  ( 11.00000000000000000, 1.347111479062088405E-15, 0.000000000000000000 ) ) ;
#207 = VECTOR ( 'NONE', #183, 1000.000000000000000 ) ;
#208 = CARTESIAN_POINT ( 'NONE',  ( 0.000000000000000000, 0.000000000000000000, 7.000000000000000000 ) ) ;
#209 = FACE_OUTER_BOUND ( 'NONE', #101, .T. ) ;
#210 = CARTESIAN_POINT ( 'NONE',  ( -8.000000000000000000, 0.000000000000000000, 407.0000000000000000 ) ) ;
#211 = EDGE_CURVE ( 'NONE', #175, #291, #181, .T. ) ;
#212 = PERSON_AND_ORGANIZATION ( #293, #252 ) ;
#213 = DIRECTION ( 'NONE',  ( 1.000000000000000000, 0.000000000000000000, 0.000000000000000000 ) ) ;
#214 = DIRECTION ( 'NONE',  ( -0.000000000000000000, -0.000000000000000000, -1.000000000000000000 ) ) ;
#215 = CARTESIAN_POINT ( 'NONE',  ( 8.200000000000001066, 0.000000000000000000, 6.999999999999992006 ) ) ;
#216 = TOROIDAL_SURFACE ( 'NONE', #48, 8.200000000000001066, 0.2000000000000000111 ) ;
#217 = DIRECTION ( 'NONE',  ( 1.000000000000000000, 0.000000000000000000, 0.000000000000000000 ) ) ;
#218 = CIRCLE ( 'NONE', #174, 8.200000000000001066 ) ;
#219 = ADVANCED_FACE ( 'NONE', ( #165 ), #144, .T. ) ;
#220 = AXIS2_PLACEMENT_3D ( 'NONE', #189, #162, #139 ) ;
#221 = ORIENTED_EDGE ( 'NONE', *, *, #150, .T. ) ;
#222 = CALENDAR_DATE ( 2022, 7, 7 ) ;
#223 = ADVANCED_FACE ( 'NONE', ( #194 ), #166, .T. ) ;
#224 = DIRECTION ( 'NONE',  ( 0.000000000000000000, 0.000000000000000000, 1.000000000000000000 ) ) ;
#225 = ORIENTED_EDGE ( 'NONE', *, *, #253, .T. ) ;
#226 = PERSON_AND_ORGANIZATION_ROLE ( 'creator' ) ;
#227 = DIRECTION ( 'NONE',  ( 1.000000000000000000, 0.000000000000000000, -0.000000000000000000 ) ) ;
#228 = EDGE_LOOP ( 'NONE', ( #9, #28, #292, #151 ) ) ;
#229 = AXIS2_PLACEMENT_3D ( 'NONE', #154, #18, #64 ) ;
#230 = APPROVAL_DATE_TIME ( #204, #278 ) ;
#231 = ORIENTED_EDGE ( 'NONE', *, *, #245, .T. ) ;
#232 = CARTESIAN_POINT ( 'NONE',  ( 0.000000000000000000, 0.000000000000000000, 7.000000000000000000 ) ) ;
#233 = APPROVAL_DATE_TIME ( #298, #61 ) ;
#234 = CARTESIAN_POINT ( 'NONE',  ( 0.000000000000000000, 0.000000000000000000, 7.199999999999984190 ) ) ;
#235 =( GEOMETRIC_REPRESENTATION_CONTEXT ( 3 ) GLOBAL_UNCERTAINTY_ASSIGNED_CONTEXT ( ( #122 ) ) GLOBAL_UNIT_ASSIGNED_CONTEXT ( ( #90, #262, #118 ) ) REPRESENTATION_CONTEXT ( 'NONE', 'WORKASPACE' ) );
#236 = VERTEX_POINT ( 'NONE', #26 ) ;
#237 = EDGE_CURVE ( 'NONE', #33, #52, #43, .T. ) ;
#238 = DIRECTION ( 'NONE',  ( 0.000000000000000000, 0.000000000000000000, 1.000000000000000000 ) ) ;
#239 = DIRECTION ( 'NONE',  ( -1.000000000000000000, 1.224646799147353207E-16, 0.000000000000000000 ) ) ;
#240 = APPROVAL_STATUS ( 'not_yet_approved' ) ;
#241 = VECTOR ( 'NONE', #301, 1000.000000000000000 ) ;
#242 = CIRCLE ( 'NONE', #287, 8.000000000000000000 ) ;
#243 = CARTESIAN_POINT ( 'NONE',  ( 0.000000000000000000, 0.000000000000000000, 0.000000000000000000 ) ) ;
#244 = COORDINATED_UNIVERSAL_TIME_OFFSET ( 1, 0, .AHEAD. ) ;
#245 = EDGE_CURVE ( 'NONE', #52, #33, #60, .T. ) ;
#246 = EDGE_LOOP ( 'NONE', ( #296, #148, #202, #172 ) ) ;
#247 = AXIS2_PLACEMENT_3D ( 'NONE', #128, #157, #62 ) ;
#248 = ORIENTED_EDGE ( 'NONE', *, *, #156, .F. ) ;
#249 = PERSON_AND_ORGANIZATION ( #293, #252 ) ;
#250 = PERSON_AND_ORGANIZATION ( #293, #252 ) ;
#251 = APPROVAL_STATUS ( 'not_yet_approved' ) ;
#252 = ORGANIZATION ( 'NEURÈENÝ', 'NEURÈENÝ', '' ) ;
#253 = EDGE_CURVE ( 'NONE', #175, #10, #16, .T. ) ;
#254 = CARTESIAN_POINT ( 'NONE',  ( 0.000000000000000000, 0.000000000000000000, 407.0000000000000000 ) ) ;
#255 = CARTESIAN_POINT ( 'NONE',  ( 0.000000000000000000, 0.000000000000000000, 7.000000000000000000 ) ) ;
#256 = CARTESIAN_POINT ( 'NONE',  ( 0.000000000000000000, 0.000000000000000000, 407.0000000000000000 ) ) ;
#257 = PRODUCT ( '0e7b', '0e7b', '', ( #193 ) ) ;
#258 = AXIS2_PLACEMENT_3D ( 'NONE', #2, #168, #266 ) ;
#259 = ORIENTED_EDGE ( 'NONE', *, *, #114, .T. ) ;
#260 = DIRECTION ( 'NONE',  ( 1.000000000000000000, 0.000000000000000000, 0.000000000000000000 ) ) ;
#261 = FACE_OUTER_BOUND ( 'NONE', #270, .T. ) ;
#262 =( NAMED_UNIT ( * ) PLANE_ANGLE_UNIT ( ) SI_UNIT ( $, .RADIAN. ) );
#263 = CIRCLE ( 'NONE', #164, 0.2000000000000005107 ) ;
#264 = DIRECTION ( 'NONE',  ( -0.000000000000000000, -0.000000000000000000, -1.000000000000000000 ) ) ;
#265 = DIRECTION ( 'NONE',  ( -1.000000000000000000, 0.000000000000000000, 0.000000000000000000 ) ) ;
#266 = DIRECTION ( 'NONE',  ( 1.000000000000000000, 0.000000000000000000, 0.000000000000000000 ) ) ;
#267 = EDGE_CURVE ( 'NONE', #124, #33, #110, .T. ) ;
#268 = PLANE ( 'NONE',  #53 ) ;
#269 = PRODUCT_RELATED_PRODUCT_CATEGORY ( 'detail', '', ( #257 ) ) ;
#270 = EDGE_LOOP ( 'NONE', ( #97, #274, #4, #123 ) ) ;
#271 = CIRCLE ( 'NONE', #70, 8.200000000000001066 ) ;
#272 = VERTEX_POINT ( 'NONE', #72 ) ;
#273 = LOCAL_TIME ( 11, 38, 21.00000000000000000, #121 ) ;
#274 = ORIENTED_EDGE ( 'NONE', *, *, #119, .T. ) ;
#275 = APPROVAL_STATUS ( 'not_yet_approved' ) ;
#276 = EDGE_LOOP ( 'NONE', ( #82, #99, #200, #248 ) ) ;
#277 = PERSON_AND_ORGANIZATION ( #293, #252 ) ;
#278 = APPROVAL ( #275, 'NEURÈENÝ' ) ;
#279 = CARTESIAN_POINT ( 'NONE',  ( -8.000000000000000000, 0.000000000000000000, 7.199999999999984190 ) ) ;
#280 = AXIS2_PLACEMENT_3D ( 'NONE', #115, #214, #265 ) ;
#281 = DIRECTION ( 'NONE',  ( -1.000000000000000000, 0.000000000000000000, 0.000000000000000000 ) ) ;
#282 = LINE ( 'NONE', #300, #173 ) ;
#283 = ADVANCED_FACE ( 'NONE', ( #169 ), #268, .F. ) ;
#284 = CYLINDRICAL_SURFACE ( 'NONE', #146, 11.00000000000000000 ) ;
#285 = CARTESIAN_POINT ( 'NONE',  ( 8.000000000000000000, 9.797174393178825657E-16, 7.199999999999984190 ) ) ;
#286 = ADVANCED_FACE ( 'NONE', ( #17 ), #185, .T. ) ;
#287 = AXIS2_PLACEMENT_3D ( 'NONE', #254, #84, #35 ) ;
#288 = PERSON_AND_ORGANIZATION ( #293, #252 ) ;
#289 = DIRECTION ( 'NONE',  ( -0.000000000000000000, -0.000000000000000000, -1.000000000000000000 ) ) ;
#290 = AXIS2_PLACEMENT_3D ( 'NONE', #190, #264, #163 ) ;
#291 = VERTEX_POINT ( 'NONE', #215 ) ;
#292 = ORIENTED_EDGE ( 'NONE', *, *, #93, .T. ) ;
#293 = PERSON ( 'NEURÈENÝ', 'NEURÈENÝ', 'NEURÈENÝ', ('NEURÈENÝ'), ('NEURÈENÝ'), ('NEURÈENÝ') ) ;
#294 = PERSON_AND_ORGANIZATION ( #293, #252 ) ;
#295 = CLOSED_SHELL ( 'NONE', ( #176, #219, #66, #286, #40, #283, #299, #223, #69 ) ) ;
#296 = ORIENTED_EDGE ( 'NONE', *, *, #119, .F. ) ;
#297 = SECURITY_CLASSIFICATION ( '', '', #13 ) ;
#298 = DATE_AND_TIME ( #222, #273 ) ;
#299 = ADVANCED_FACE ( 'NONE', ( #160 ), #22, .T. ) ;
#300 = CARTESIAN_POINT ( 'NONE',  ( -11.00000000000000000, 0.000000000000000000, 7.000000000000000000 ) ) ;
#301 = DIRECTION ( 'NONE',  ( -0.000000000000000000, -0.000000000000000000, -1.000000000000000000 ) ) ;
#302 = AXIS2_PLACEMENT_3D ( 'NONE', #133, #238, #85 ) ;
#303 = LINE ( 'NONE', #180, #207 ) ;
#304 = CARTESIAN_POINT ( 'NONE',  ( 0.000000000000000000, 0.000000000000000000, 7.199999999999984190 ) ) ;
#305 = CARTESIAN_POINT ( 'NONE',  ( -8.200000000000001066, 1.004210375300829674E-15, 7.199999999999984190 ) ) ;
#306 = PRODUCT_DEFINITION_FORMATION_WITH_SPECIFIED_SOURCE ( 'LIBOVOLNÝ', '', #257, .NOT_KNOWN. ) ;
#307 = DIRECTION ( 'NONE',  ( 0.000000000000000000, 0.000000000000000000, 1.000000000000000000 ) ) ;
ENDSEC;
END-ISO-10303-21;
