ISO-10303-21;
HEADER;
FILE_DESCRIPTION (( 'STEP AP203' ),
    '1' );
FILE_NAME ('6852.STEP',
    '2023-02-12T11:15:50',
    ( '' ),
    ( '' ),
    'SwSTEP 2.0',
    'SolidWorks 2019',
    '' );
FILE_SCHEMA (( 'CONFIG_CONTROL_DESIGN' ));
ENDSEC;

DATA;
#1 = DIRECTION ( 'NONE',  ( -1.000000000000000000, 0.000000000000000000, 0.000000000000000000 ) ) ;
#2 = ORIENTED_EDGE ( 'NONE', *, *, #63, .T. ) ;
#3 = DIRECTION ( 'NONE',  ( -0.000000000000000000, -0.000000000000000000, -1.000000000000000000 ) ) ;
#4 = ORIENTED_EDGE ( 'NONE', *, *, #180, .F. ) ;
#5 = DIRECTION ( 'NONE',  ( 1.000000000000000000, 0.000000000000000000, -0.000000000000000000 ) ) ;
#6 = ORIENTED_EDGE ( 'NONE', *, *, #13, .F. ) ;
#7 = VERTEX_POINT ( 'NONE', #62 ) ;
#8 = FACE_OUTER_BOUND ( 'NONE', #24, .T. ) ;
#9 = CC_DESIGN_PERSON_AND_ORGANIZATION_ASSIGNMENT ( #95, #16, ( #76 ) ) ;
#10 = AXIS2_PLACEMENT_3D ( 'NONE', #205, #238, #218 ) ;
#11 = CARTESIAN_POINT ( 'NONE',  ( 0.000000000000000000, 0.000000000000000000, 5.000000000000000000 ) ) ;
#12 = LOCAL_TIME ( 12, 15, 50.00000000000000000, #54 ) ;
#13 = EDGE_CURVE ( 'NONE', #28, #89, #25, .T. ) ;
#14 = CARTESIAN_POINT ( 'NONE',  ( 0.000000000000000000, 0.000000000000000000, 5.000000000000000000 ) ) ;
#15 = AXIS2_PLACEMENT_3D ( 'NONE', #240, #86, #45 ) ;
#16 = PERSON_AND_ORGANIZATION_ROLE ( 'classification_officer' ) ;
#17 = PERSON_AND_ORGANIZATION ( #53, #116 ) ;
#18 = CIRCLE ( 'NONE', #179, 8.000000000000000000 ) ;
#19 = APPLICATION_CONTEXT ( 'configuration controlled 3d designs of mechanical parts and assemblies' ) ;
#20 = APPROVAL ( #208, 'NEURÈENÝ' ) ;
#21 = DIRECTION ( 'NONE',  ( 1.000000000000000000, 0.000000000000000000, 0.000000000000000000 ) ) ;
#22 = CIRCLE ( 'NONE', #131, 8.000000000000000000 ) ;
#23 = FACE_OUTER_BOUND ( 'NONE', #147, .T. ) ;
#24 = EDGE_LOOP ( 'NONE', ( #67, #200, #60, #148 ) ) ;
#25 = LINE ( 'NONE', #83, #135 ) ;
#26 = CARTESIAN_POINT ( 'NONE',  ( 0.000000000000000000, 0.000000000000000000, 0.000000000000000000 ) ) ;
#27 = FACE_OUTER_BOUND ( 'NONE', #182, .T. ) ;
#28 = VERTEX_POINT ( 'NONE', #217 ) ;
#29 = DIRECTION ( 'NONE',  ( -0.000000000000000000, -0.000000000000000000, -1.000000000000000000 ) ) ;
#30 = DIRECTION ( 'NONE',  ( 1.000000000000000000, 0.000000000000000000, 0.000000000000000000 ) ) ;
#31 = CALENDAR_DATE ( 2023, 12, 2 ) ;
#32 = ADVANCED_FACE ( 'NONE', ( #8 ), #166, .T. ) ;
#33 = PERSON_AND_ORGANIZATION ( #53, #116 ) ;
#34 = EDGE_CURVE ( 'NONE', #115, #7, #173, .T. ) ;
#35 = ORIENTED_EDGE ( 'NONE', *, *, #235, .F. ) ;
#36 = FACE_OUTER_BOUND ( 'NONE', #39, .T. ) ;
#37 = CIRCLE ( 'NONE', #252, 5.250000000000000888 ) ;
#38 = CARTESIAN_POINT ( 'NONE',  ( 8.000000000000000000, 9.797174393178825657E-16, 0.000000000000000000 ) ) ;
#39 = EDGE_LOOP ( 'NONE', ( #127, #87 ) ) ;
#40 = DIRECTION ( 'NONE',  ( -0.000000000000000000, -0.000000000000000000, -1.000000000000000000 ) ) ;
#41 = CARTESIAN_POINT ( 'NONE',  ( -8.000000000000000000, 0.000000000000000000, 0.000000000000000000 ) ) ;
#42 = AXIS2_PLACEMENT_3D ( 'NONE', #71, #46, #171 ) ;
#43 = CC_DESIGN_PERSON_AND_ORGANIZATION_ASSIGNMENT ( #113, #72, ( #125 ) ) ;
#44 = DIRECTION ( 'NONE',  ( 1.000000000000000000, 0.000000000000000000, 0.000000000000000000 ) ) ;
#45 = DIRECTION ( 'NONE',  ( 1.000000000000000000, 0.000000000000000000, 0.000000000000000000 ) ) ;
#46 = DIRECTION ( 'NONE',  ( 0.000000000000000000, 0.000000000000000000, 1.000000000000000000 ) ) ;
#47 = CARTESIAN_POINT ( 'NONE',  ( 0.000000000000000000, 0.000000000000000000, 5.000000000000000000 ) ) ;
#48 =( NAMED_UNIT ( * ) PLANE_ANGLE_UNIT ( ) SI_UNIT ( $, .RADIAN. ) );
#49 = CALENDAR_DATE ( 2023, 12, 2 ) ;
#50 = ADVANCED_FACE ( 'NONE', ( #134 ), #159, .T. ) ;
#51 = DATE_TIME_ROLE ( 'classification_date' ) ;
#52 = PRODUCT_DEFINITION_FORMATION_WITH_SPECIFIED_SOURCE ( 'LIBOVOLNÝ', '', #125, .NOT_KNOWN. ) ;
#53 = PERSON ( 'NEURÈENÝ', 'NEURÈENÝ', 'NEURÈENÝ', ('NEURÈENÝ'), ('NEURÈENÝ'), ('NEURÈENÝ') ) ;
#54 = COORDINATED_UNIVERSAL_TIME_OFFSET ( 1, 0, .AHEAD. ) ;
#55 = ADVANCED_FACE ( 'NONE', ( #27 ), #93, .T. ) ;
#56 = UNCERTAINTY_MEASURE_WITH_UNIT (LENGTH_MEASURE( 1.000000000000000082E-05 ), #174, 'distance_accuracy_value', 'NONE');
#57 = CARTESIAN_POINT ( 'NONE',  ( -5.250000000000000888, 0.000000000000000000, 5.000000000000000000 ) ) ;
#58 = PRODUCT_DEFINITION ( 'NEZNÁMÝ', '', #52, #161 ) ;
#59 = ADVANCED_BREP_SHAPE_REPRESENTATION ( '6852', ( #126, #70 ), #65 ) ;
#60 = ORIENTED_EDGE ( 'NONE', *, *, #94, .T. ) ;
#61 = CC_DESIGN_APPROVAL ( #20, ( #58 ) ) ;
#62 = CARTESIAN_POINT ( 'NONE',  ( 5.250000000000000888, 6.429395695523605139E-16, 500.0000000000000000 ) ) ;
#63 = EDGE_CURVE ( 'NONE', #7, #115, #192, .T. ) ;
#64 = DIRECTION ( 'NONE',  ( 0.000000000000000000, 0.000000000000000000, 1.000000000000000000 ) ) ;
#65 =( GEOMETRIC_REPRESENTATION_CONTEXT ( 3 ) GLOBAL_UNCERTAINTY_ASSIGNED_CONTEXT ( ( #56 ) ) GLOBAL_UNIT_ASSIGNED_CONTEXT ( ( #174, #48, #152 ) ) REPRESENTATION_CONTEXT ( 'NONE', 'WORKASPACE' ) );
#66 = CARTESIAN_POINT ( 'NONE',  ( 0.000000000000000000, 0.000000000000000000, 5.000000000000000000 ) ) ;
#67 = ORIENTED_EDGE ( 'NONE', *, *, #158, .F. ) ;
#68 = DIRECTION ( 'NONE',  ( 1.000000000000000000, 0.000000000000000000, -0.000000000000000000 ) ) ;
#69 = DIRECTION ( 'NONE',  ( 0.000000000000000000, 0.000000000000000000, 1.000000000000000000 ) ) ;
#70 = AXIS2_PLACEMENT_3D ( 'NONE', #226, #250, #255 ) ;
#71 = CARTESIAN_POINT ( 'NONE',  ( 0.000000000000000000, 0.000000000000000000, 500.0000000000000000 ) ) ;
#72 = PERSON_AND_ORGANIZATION_ROLE ( 'design_owner' ) ;
#73 = CARTESIAN_POINT ( 'NONE',  ( 0.000000000000000000, 0.000000000000000000, 500.0000000000000000 ) ) ;
#74 = DATE_AND_TIME ( #31, #188 ) ;
#75 = COORDINATED_UNIVERSAL_TIME_OFFSET ( 1, 0, .AHEAD. ) ;
#76 = SECURITY_CLASSIFICATION ( '', '', #194 ) ;
#77 = APPROVAL_ROLE ( '' ) ;
#78 = VECTOR ( 'NONE', #3, 1000.000000000000000 ) ;
#79 = ADVANCED_FACE ( 'NONE', ( #183, #36 ), #230, .T. ) ;
#80 = EDGE_LOOP ( 'NONE', ( #4, #185, #244, #184 ) ) ;
#81 = LINE ( 'NONE', #214, #78 ) ;
#82 = ORIENTED_EDGE ( 'NONE', *, *, #94, .F. ) ;
#83 = CARTESIAN_POINT ( 'NONE',  ( 8.000000000000000000, 9.797174393178825657E-16, 5.000000000000000000 ) ) ;
#84 = AXIS2_PLACEMENT_3D ( 'NONE', #186, #88, #107 ) ;
#85 = CC_DESIGN_DATE_AND_TIME_ASSIGNMENT ( #74, #114, ( #58 ) ) ;
#86 = DIRECTION ( 'NONE',  ( 0.000000000000000000, 0.000000000000000000, 1.000000000000000000 ) ) ;
#87 = ORIENTED_EDGE ( 'NONE', *, *, #180, .T. ) ;
#88 = DIRECTION ( 'NONE',  ( -0.000000000000000000, -0.000000000000000000, -1.000000000000000000 ) ) ;
#89 = VERTEX_POINT ( 'NONE', #38 ) ;
#90 = APPROVAL_PERSON_ORGANIZATION ( #17, #128, #232 ) ;
#91 = FACE_OUTER_BOUND ( 'NONE', #80, .T. ) ;
#92 = COORDINATED_UNIVERSAL_TIME_OFFSET ( 1, 0, .AHEAD. ) ;
#93 = PLANE ( 'NONE',  #42 ) ;
#94 = EDGE_CURVE ( 'NONE', #115, #103, #81, .T. ) ;
#95 = PERSON_AND_ORGANIZATION ( #53, #116 ) ;
#96 = COORDINATED_UNIVERSAL_TIME_OFFSET ( 1, 0, .AHEAD. ) ;
#97 = DIRECTION ( 'NONE',  ( -0.000000000000000000, -0.000000000000000000, -1.000000000000000000 ) ) ;
#98 = APPROVAL_STATUS ( 'not_yet_approved' ) ;
#99 = PERSON_AND_ORGANIZATION ( #53, #116 ) ;
#100 = ORIENTED_EDGE ( 'NONE', *, *, #158, .T. ) ;
#101 = ORIENTED_EDGE ( 'NONE', *, *, #207, .F. ) ;
#102 = CLOSED_SHELL ( 'NONE', ( #50, #243, #109, #79, #248, #32, #55 ) ) ;
#103 = VERTEX_POINT ( 'NONE', #57 ) ;
#104 = CC_DESIGN_SECURITY_CLASSIFICATION ( #76, ( #52 ) ) ;
#105 = DIRECTION ( 'NONE',  ( 1.000000000000000000, 0.000000000000000000, 0.000000000000000000 ) ) ;
#106 = CARTESIAN_POINT ( 'NONE',  ( -5.250000000000000888, 0.000000000000000000, 500.0000000000000000 ) ) ;
#107 = DIRECTION ( 'NONE',  ( -1.000000000000000000, 0.000000000000000000, 0.000000000000000000 ) ) ;
#108 = CARTESIAN_POINT ( 'NONE',  ( 0.000000000000000000, 0.000000000000000000, 5.000000000000000000 ) ) ;
#109 = ADVANCED_FACE ( 'NONE', ( #23 ), #163, .T. ) ;
#110 = PERSON_AND_ORGANIZATION ( #53, #116 ) ;
#111 = DATE_AND_TIME ( #172, #151 ) ;
#112 = LOCAL_TIME ( 12, 15, 50.00000000000000000, #96 ) ;
#113 = PERSON_AND_ORGANIZATION ( #53, #116 ) ;
#114 = DATE_TIME_ROLE ( 'creation_date' ) ;
#115 = VERTEX_POINT ( 'NONE', #106 ) ;
#116 = ORGANIZATION ( 'NEURÈENÝ', 'NEURÈENÝ', '' ) ;
#117 = VERTEX_POINT ( 'NONE', #239 ) ;
#118 = CC_DESIGN_PERSON_AND_ORGANIZATION_ASSIGNMENT ( #211, #206, ( #52 ) ) ;
#119 = DATE_AND_TIME ( #177, #225 ) ;
#120 = VERTEX_POINT ( 'NONE', #41 ) ;
#121 = DIRECTION ( 'NONE',  ( -1.000000000000000000, 0.000000000000000000, 0.000000000000000000 ) ) ;
#122 = LINE ( 'NONE', #201, #233 ) ;
#123 = CARTESIAN_POINT ( 'NONE',  ( 0.000000000000000000, 0.000000000000000000, 500.0000000000000000 ) ) ;
#124 = CARTESIAN_POINT ( 'NONE',  ( -8.000000000000000000, 0.000000000000000000, 5.000000000000000000 ) ) ;
#125 = PRODUCT ( '6852', '6852', '', ( #251 ) ) ;
#126 = MANIFOLD_SOLID_BREP ( 'Pøidat vysunutím3', #102 ) ;
#127 = ORIENTED_EDGE ( 'NONE', *, *, #193, .T. ) ;
#128 = APPROVAL ( #98, 'NEURÈENÝ' ) ;
#129 = CARTESIAN_POINT ( 'NONE',  ( -8.000000000000000000, 0.000000000000000000, 5.000000000000000000 ) ) ;
#130 = DIRECTION ( 'NONE',  ( 0.000000000000000000, 0.000000000000000000, 1.000000000000000000 ) ) ;
#131 = AXIS2_PLACEMENT_3D ( 'NONE', #14, #190, #105 ) ;
#132 = EDGE_CURVE ( 'NONE', #120, #89, #224, .T. ) ;
#133 = APPROVAL_ROLE ( '' ) ;
#134 = FACE_OUTER_BOUND ( 'NONE', #215, .T. ) ;
#135 = VECTOR ( 'NONE', #143, 1000.000000000000000 ) ;
#136 = APPLICATION_PROTOCOL_DEFINITION ( 'international standard', 'config_control_design', 1994, #253 ) ;
#137 = AXIS2_PLACEMENT_3D ( 'NONE', #26, #69, #170 ) ;
#138 = APPLICATION_PROTOCOL_DEFINITION ( 'international standard', 'config_control_design', 1994, #19 ) ;
#139 = APPROVAL_DATE_TIME ( #210, #20 ) ;
#140 = ORIENTED_EDGE ( 'NONE', *, *, #34, .T. ) ;
#141 = EDGE_LOOP ( 'NONE', ( #101, #237 ) ) ;
#142 = COORDINATED_UNIVERSAL_TIME_OFFSET ( 1, 0, .AHEAD. ) ;
#143 = DIRECTION ( 'NONE',  ( -0.000000000000000000, -0.000000000000000000, -1.000000000000000000 ) ) ;
#144 = AXIS2_PLACEMENT_3D ( 'NONE', #162, #178, #5 ) ;
#145 = DIRECTION ( 'NONE',  ( 1.000000000000000000, 0.000000000000000000, 0.000000000000000000 ) ) ;
#146 = APPROVAL ( #195, 'NEURÈENÝ' ) ;
#147 = EDGE_LOOP ( 'NONE', ( #6, #160, #169, #227 ) ) ;
#148 = ORIENTED_EDGE ( 'NONE', *, *, #207, .T. ) ;
#149 = DIRECTION ( 'NONE',  ( 0.000000000000000000, 0.000000000000000000, 1.000000000000000000 ) ) ;
#150 = CYLINDRICAL_SURFACE ( 'NONE', #84, 8.000000000000000000 ) ;
#151 = LOCAL_TIME ( 12, 15, 50.00000000000000000, #92 ) ;
#152 =( NAMED_UNIT ( * ) SI_UNIT ( $, .STERADIAN. ) SOLID_ANGLE_UNIT ( ) );
#153 = CALENDAR_DATE ( 2023, 12, 2 ) ;
#154 = CC_DESIGN_DATE_AND_TIME_ASSIGNMENT ( #223, #51, ( #76 ) ) ;
#155 = PERSON_AND_ORGANIZATION ( #53, #116 ) ;
#156 = AXIS2_PLACEMENT_3D ( 'NONE', #11, #247, #145 ) ;
#157 = PRODUCT_DEFINITION_SHAPE ( 'NONE', 'NONE',  #58 ) ;
#158 = EDGE_CURVE ( 'NONE', #7, #117, #122, .T. ) ;
#159 = CYLINDRICAL_SURFACE ( 'NONE', #167, 5.250000000000000888 ) ;
#160 = ORIENTED_EDGE ( 'NONE', *, *, #193, .F. ) ;
#161 = DESIGN_CONTEXT ( 'detailed design', #253, 'design' ) ;
#162 = CARTESIAN_POINT ( 'NONE',  ( 0.000000000000000000, 0.000000000000000000, 5.000000000000000000 ) ) ;
#163 = CYLINDRICAL_SURFACE ( 'NONE', #196, 8.000000000000000000 ) ;
#164 = EDGE_LOOP ( 'NONE', ( #234, #35 ) ) ;
#165 = CC_DESIGN_PERSON_AND_ORGANIZATION_ASSIGNMENT ( #99, #212, ( #58 ) ) ;
#166 = CYLINDRICAL_SURFACE ( 'NONE', #219, 5.250000000000000888 ) ;
#167 = AXIS2_PLACEMENT_3D ( 'NONE', #73, #97, #1 ) ;
#168 = FACE_OUTER_BOUND ( 'NONE', #164, .T. ) ;
#169 = ORIENTED_EDGE ( 'NONE', *, *, #216, .T. ) ;
#170 = DIRECTION ( 'NONE',  ( 1.000000000000000000, 0.000000000000000000, 0.000000000000000000 ) ) ;
#171 = DIRECTION ( 'NONE',  ( 1.000000000000000000, 0.000000000000000000, -0.000000000000000000 ) ) ;
#172 = CALENDAR_DATE ( 2023, 12, 2 ) ;
#173 = CIRCLE ( 'NONE', #15, 5.250000000000000888 ) ;
#174 =( LENGTH_UNIT ( ) NAMED_UNIT ( * ) SI_UNIT ( .MILLI., .METRE. ) );
#175 = EDGE_CURVE ( 'NONE', #117, #103, #37, .T. ) ;
#176 = ORIENTED_EDGE ( 'NONE', *, *, #175, .T. ) ;
#177 = CALENDAR_DATE ( 2023, 12, 2 ) ;
#178 = DIRECTION ( 'NONE',  ( 0.000000000000000000, 0.000000000000000000, 1.000000000000000000 ) ) ;
#179 = AXIS2_PLACEMENT_3D ( 'NONE', #47, #149, #30 ) ;
#180 = EDGE_CURVE ( 'NONE', #28, #181, #18, .T. ) ;
#181 = VERTEX_POINT ( 'NONE', #124 ) ;
#182 = EDGE_LOOP ( 'NONE', ( #140, #2 ) ) ;
#183 = FACE_BOUND ( 'NONE', #141, .T. ) ;
#184 = ORIENTED_EDGE ( 'NONE', *, *, #216, .F. ) ;
#185 = ORIENTED_EDGE ( 'NONE', *, *, #13, .T. ) ;
#186 = CARTESIAN_POINT ( 'NONE',  ( 0.000000000000000000, 0.000000000000000000, 5.000000000000000000 ) ) ;
#187 = CARTESIAN_POINT ( 'NONE',  ( 0.000000000000000000, 0.000000000000000000, 0.000000000000000000 ) ) ;
#188 = LOCAL_TIME ( 12, 15, 50.00000000000000000, #75 ) ;
#189 = CIRCLE ( 'NONE', #156, 5.250000000000000888 ) ;
#190 = DIRECTION ( 'NONE',  ( 0.000000000000000000, 0.000000000000000000, 1.000000000000000000 ) ) ;
#191 = PERSON_AND_ORGANIZATION_ROLE ( 'design_supplier' ) ;
#192 = CIRCLE ( 'NONE', #241, 5.250000000000000888 ) ;
#193 = EDGE_CURVE ( 'NONE', #181, #28, #22, .T. ) ;
#194 = SECURITY_CLASSIFICATION_LEVEL ( 'unclassified' ) ;
#195 = APPROVAL_STATUS ( 'not_yet_approved' ) ;
#196 = AXIS2_PLACEMENT_3D ( 'NONE', #108, #242, #204 ) ;
#197 = PRODUCT_RELATED_PRODUCT_CATEGORY ( 'detail', '', ( #125 ) ) ;
#198 = CC_DESIGN_APPROVAL ( #146, ( #52 ) ) ;
#199 = SHAPE_DEFINITION_REPRESENTATION ( #157, #59 ) ;
#200 = ORIENTED_EDGE ( 'NONE', *, *, #34, .F. ) ;
#201 = CARTESIAN_POINT ( 'NONE',  ( 5.250000000000000888, 6.429395695523605139E-16, 500.0000000000000000 ) ) ;
#202 = DIRECTION ( 'NONE',  ( -0.000000000000000000, -0.000000000000000000, -1.000000000000000000 ) ) ;
#203 = PLANE ( 'NONE',  #249 ) ;
#204 = DIRECTION ( 'NONE',  ( -1.000000000000000000, 0.000000000000000000, 0.000000000000000000 ) ) ;
#205 = CARTESIAN_POINT ( 'NONE',  ( 0.000000000000000000, 0.000000000000000000, 0.000000000000000000 ) ) ;
#206 = PERSON_AND_ORGANIZATION_ROLE ( 'creator' ) ;
#207 = EDGE_CURVE ( 'NONE', #103, #117, #189, .T. ) ;
#208 = APPROVAL_STATUS ( 'not_yet_approved' ) ;
#209 = APPROVAL_PERSON_ORGANIZATION ( #33, #146, #133 ) ;
#210 = DATE_AND_TIME ( #49, #12 ) ;
#211 = PERSON_AND_ORGANIZATION ( #53, #116 ) ;
#212 = PERSON_AND_ORGANIZATION_ROLE ( 'creator' ) ;
#213 = APPROVAL_PERSON_ORGANIZATION ( #155, #20, #77 ) ;
#214 = CARTESIAN_POINT ( 'NONE',  ( -5.250000000000000888, 0.000000000000000000, 500.0000000000000000 ) ) ;
#215 = EDGE_LOOP ( 'NONE', ( #221, #100, #176, #82 ) ) ;
#216 = EDGE_CURVE ( 'NONE', #181, #120, #220, .T. ) ;
#217 = CARTESIAN_POINT ( 'NONE',  ( 8.000000000000000000, 9.797174393178825657E-16, 5.000000000000000000 ) ) ;
#218 = DIRECTION ( 'NONE',  ( 1.000000000000000000, 0.000000000000000000, 0.000000000000000000 ) ) ;
#219 = AXIS2_PLACEMENT_3D ( 'NONE', #123, #40, #121 ) ;
#220 = LINE ( 'NONE', #129, #229 ) ;
#221 = ORIENTED_EDGE ( 'NONE', *, *, #63, .F. ) ;
#222 = APPROVAL_DATE_TIME ( #111, #146 ) ;
#223 = DATE_AND_TIME ( #153, #112 ) ;
#224 = CIRCLE ( 'NONE', #10, 8.000000000000000000 ) ;
#225 = LOCAL_TIME ( 12, 15, 50.00000000000000000, #142 ) ;
#226 = CARTESIAN_POINT ( 'NONE',  ( 0.000000000000000000, 0.000000000000000000, 0.000000000000000000 ) ) ;
#227 = ORIENTED_EDGE ( 'NONE', *, *, #132, .T. ) ;
#228 = APPROVAL_DATE_TIME ( #119, #128 ) ;
#229 = VECTOR ( 'NONE', #202, 1000.000000000000000 ) ;
#230 = PLANE ( 'NONE',  #144 ) ;
#231 = CC_DESIGN_PERSON_AND_ORGANIZATION_ASSIGNMENT ( #110, #191, ( #52 ) ) ;
#232 = APPROVAL_ROLE ( '' ) ;
#233 = VECTOR ( 'NONE', #29, 1000.000000000000000 ) ;
#234 = ORIENTED_EDGE ( 'NONE', *, *, #132, .F. ) ;
#235 = EDGE_CURVE ( 'NONE', #89, #120, #236, .T. ) ;
#236 = CIRCLE ( 'NONE', #137, 8.000000000000000000 ) ;
#237 = ORIENTED_EDGE ( 'NONE', *, *, #175, .F. ) ;
#238 = DIRECTION ( 'NONE',  ( 0.000000000000000000, 0.000000000000000000, 1.000000000000000000 ) ) ;
#239 = CARTESIAN_POINT ( 'NONE',  ( 5.250000000000000888, 6.429395695523605139E-16, 5.000000000000000000 ) ) ;
#240 = CARTESIAN_POINT ( 'NONE',  ( 0.000000000000000000, 0.000000000000000000, 500.0000000000000000 ) ) ;
#241 = AXIS2_PLACEMENT_3D ( 'NONE', #246, #130, #21 ) ;
#242 = DIRECTION ( 'NONE',  ( -0.000000000000000000, -0.000000000000000000, -1.000000000000000000 ) ) ;
#243 = ADVANCED_FACE ( 'NONE', ( #91 ), #150, .T. ) ;
#244 = ORIENTED_EDGE ( 'NONE', *, *, #235, .T. ) ;
#245 = DIRECTION ( 'NONE',  ( 0.000000000000000000, 0.000000000000000000, 1.000000000000000000 ) ) ;
#246 = CARTESIAN_POINT ( 'NONE',  ( 0.000000000000000000, 0.000000000000000000, 500.0000000000000000 ) ) ;
#247 = DIRECTION ( 'NONE',  ( 0.000000000000000000, 0.000000000000000000, 1.000000000000000000 ) ) ;
#248 = ADVANCED_FACE ( 'NONE', ( #168 ), #203, .F. ) ;
#249 = AXIS2_PLACEMENT_3D ( 'NONE', #187, #245, #68 ) ;
#250 = DIRECTION ( 'NONE',  ( 0.000000000000000000, 0.000000000000000000, 1.000000000000000000 ) ) ;
#251 = MECHANICAL_CONTEXT ( 'NONE', #19, 'mechanical' ) ;
#252 = AXIS2_PLACEMENT_3D ( 'NONE', #66, #64, #44 ) ;
#253 = APPLICATION_CONTEXT ( 'configuration controlled 3d designs of mechanical parts and assemblies' ) ;
#254 = CC_DESIGN_APPROVAL ( #128, ( #76 ) ) ;
#255 = DIRECTION ( 'NONE',  ( 1.000000000000000000, 0.000000000000000000, 0.000000000000000000 ) ) ;
ENDSEC;
END-ISO-10303-21;
