ISO-10303-21;
HEADER;
FILE_DESCRIPTION (( 'STEP AP203' ),
    '1' );
FILE_NAME ('9d0b.STEP',
    '2022-07-07T10:34:50',
    ( '' ),
    ( '' ),
    'SwSTEP 2.0',
    'SolidWorks 2019',
    '' );
FILE_SCHEMA (( 'CONFIG_CONTROL_DESIGN' ));
ENDSEC;

DATA;
#1 = CC_DESIGN_PERSON_AND_ORGANIZATION_ASSIGNMENT ( #187, #258, ( #241 ) ) ;
#2 = PERSON_AND_ORGANIZATION ( #98, #190 ) ;
#3 = APPROVAL_ROLE ( '' ) ;
#4 = ADVANCED_FACE ( 'NONE', ( #206 ), #245, .T. ) ;
#5 = ORIENTED_EDGE ( 'NONE', *, *, #186, .F. ) ;
#6 = VERTEX_POINT ( 'NONE', #15 ) ;
#7 = ORIENTED_EDGE ( 'NONE', *, *, #73, .T. ) ;
#8 = EDGE_CURVE ( 'NONE', #118, #218, #188, .T. ) ;
#9 = DIRECTION ( 'NONE',  ( 0.000000000000000000, 0.000000000000000000, 1.000000000000000000 ) ) ;
#10 = CARTESIAN_POINT ( 'NONE',  ( -1.100000000000000089, 0.000000000000000000, 102.0000000000000142 ) ) ;
#11 =( GEOMETRIC_REPRESENTATION_CONTEXT ( 3 ) GLOBAL_UNCERTAINTY_ASSIGNED_CONTEXT ( ( #132 ) ) GLOBAL_UNIT_ASSIGNED_CONTEXT ( ( #64, #185, #67 ) ) REPRESENTATION_CONTEXT ( 'NONE', 'WORKASPACE' ) );
#12 = APPROVAL_PERSON_ORGANIZATION ( #264, #199, #3 ) ;
#13 = DIRECTION ( 'NONE',  ( 0.000000000000000000, 0.000000000000000000, 1.000000000000000000 ) ) ;
#14 = DIRECTION ( 'NONE',  ( 1.000000000000000000, 0.000000000000000000, 0.000000000000000000 ) ) ;
#15 = CARTESIAN_POINT ( 'NONE',  ( -2.000000000000000000, 0.000000000000000000, 0.000000000000000000 ) ) ;
#16 = CARTESIAN_POINT ( 'NONE',  ( 2.000000000000000000, 2.449293598294706414E-16, 2.000000000000000000 ) ) ;
#17 = DIRECTION ( 'NONE',  ( 1.000000000000000000, 0.000000000000000000, 0.000000000000000000 ) ) ;
#18 = CARTESIAN_POINT ( 'NONE',  ( 0.000000000000000000, 0.000000000000000000, 102.0000000000000142 ) ) ;
#19 = AXIS2_PLACEMENT_3D ( 'NONE', #33, #125, #17 ) ;
#20 = CIRCLE ( 'NONE', #122, 1.100000000000000089 ) ;
#21 = CARTESIAN_POINT ( 'NONE',  ( -2.000000000000000000, 0.000000000000000000, 2.000000000000000000 ) ) ;
#22 = EDGE_CURVE ( 'NONE', #75, #49, #155, .T. ) ;
#23 = PERSON_AND_ORGANIZATION_ROLE ( 'creator' ) ;
#24 = DATE_AND_TIME ( #261, #290 ) ;
#25 = APPLICATION_PROTOCOL_DEFINITION ( 'international standard', 'config_control_design', 1994, #151 ) ;
#26 = ORIENTED_EDGE ( 'NONE', *, *, #73, .F. ) ;
#27 = APPROVAL_PERSON_ORGANIZATION ( #189, #28, #139 ) ;
#28 = APPROVAL ( #285, 'NEURÈENÝ' ) ;
#29 = EDGE_LOOP ( 'NONE', ( #7, #276 ) ) ;
#30 = EDGE_LOOP ( 'NONE', ( #100, #172, #200, #85 ) ) ;
#31 = ADVANCED_FACE ( 'NONE', ( #36 ), #288, .F. ) ;
#32 = AXIS2_PLACEMENT_3D ( 'NONE', #40, #58, #180 ) ;
#33 = CARTESIAN_POINT ( 'NONE',  ( 0.000000000000000000, 0.000000000000000000, 0.000000000000000000 ) ) ;
#34 = EDGE_LOOP ( 'NONE', ( #167, #104 ) ) ;
#35 = DIRECTION ( 'NONE',  ( 1.000000000000000000, 0.000000000000000000, 0.000000000000000000 ) ) ;
#36 = FACE_OUTER_BOUND ( 'NONE', #298, .T. ) ;
#37 = DIRECTION ( 'NONE',  ( -0.000000000000000000, -0.000000000000000000, -1.000000000000000000 ) ) ;
#38 = VECTOR ( 'NONE', #230, 1000.000000000000000 ) ;
#39 = DIRECTION ( 'NONE',  ( -0.000000000000000000, -0.000000000000000000, -1.000000000000000000 ) ) ;
#40 = CARTESIAN_POINT ( 'NONE',  ( 0.000000000000000000, 0.000000000000000000, 2.000000000000000000 ) ) ;
#41 = CARTESIAN_POINT ( 'NONE',  ( 0.000000000000000000, 0.000000000000000000, 0.000000000000000000 ) ) ;
#42 = DIRECTION ( 'NONE',  ( 0.000000000000000000, 0.000000000000000000, 1.000000000000000000 ) ) ;
#43 = EDGE_CURVE ( 'NONE', #117, #6, #235, .T. ) ;
#44 = CC_DESIGN_APPROVAL ( #28, ( #297 ) ) ;
#45 = DATE_AND_TIME ( #217, #137 ) ;
#46 = APPROVAL_ROLE ( '' ) ;
#47 = PERSON_AND_ORGANIZATION ( #98, #190 ) ;
#48 = APPROVAL_DATE_TIME ( #96, #28 ) ;
#49 = VERTEX_POINT ( 'NONE', #204 ) ;
#50 = EDGE_CURVE ( 'NONE', #53, #75, #194, .T. ) ;
#51 = AXIS2_PLACEMENT_3D ( 'NONE', #238, #116, #289 ) ;
#52 = ORIENTED_EDGE ( 'NONE', *, *, #43, .T. ) ;
#53 = VERTEX_POINT ( 'NONE', #272 ) ;
#54 = PRODUCT_DEFINITION ( 'NEZNÁMÝ', '', #297, #158 ) ;
#55 = CARTESIAN_POINT ( 'NONE',  ( 0.000000000000000000, 0.000000000000000000, 2.000000000000000000 ) ) ;
#56 = CIRCLE ( 'NONE', #174, 1.100000000000000089 ) ;
#57 = CYLINDRICAL_SURFACE ( 'NONE', #284, 1.100000000000000089 ) ;
#58 = DIRECTION ( 'NONE',  ( -0.000000000000000000, -0.000000000000000000, -1.000000000000000000 ) ) ;
#59 = DIRECTION ( 'NONE',  ( 0.000000000000000000, 0.000000000000000000, 1.000000000000000000 ) ) ;
#60 = DIRECTION ( 'NONE',  ( -0.000000000000000000, -0.000000000000000000, -1.000000000000000000 ) ) ;
#61 = EDGE_LOOP ( 'NONE', ( #231, #78 ) ) ;
#62 = CARTESIAN_POINT ( 'NONE',  ( 0.000000000000000000, 0.000000000000000000, 2.000000000000000000 ) ) ;
#63 = FACE_OUTER_BOUND ( 'NONE', #34, .T. ) ;
#64 =( LENGTH_UNIT ( ) NAMED_UNIT ( * ) SI_UNIT ( .MILLI., .METRE. ) );
#65 = PLANE ( 'NONE',  #74 ) ;
#66 = CARTESIAN_POINT ( 'NONE',  ( 0.000000000000000000, 0.000000000000000000, 2.199999999999993516 ) ) ;
#67 =( NAMED_UNIT ( * ) SI_UNIT ( $, .STERADIAN. ) SOLID_ANGLE_UNIT ( ) );
#68 = CIRCLE ( 'NONE', #278, 1.300000000000000266 ) ;
#69 = CIRCLE ( 'NONE', #244, 1.100000000000000089 ) ;
#70 = CALENDAR_DATE ( 2022, 7, 7 ) ;
#71 = DATE_AND_TIME ( #70, #170 ) ;
#72 = PERSON_AND_ORGANIZATION ( #98, #190 ) ;
#73 = EDGE_CURVE ( 'NONE', #75, #53, #56, .T. ) ;
#74 = AXIS2_PLACEMENT_3D ( 'NONE', #210, #305, #88 ) ;
#75 = VERTEX_POINT ( 'NONE', #10 ) ;
#76 = VECTOR ( 'NONE', #225, 1000.000000000000000 ) ;
#77 = MANIFOLD_SOLID_BREP ( 'Zaoblit1', #182 ) ;
#78 = ORIENTED_EDGE ( 'NONE', *, *, #234, .T. ) ;
#79 = DIRECTION ( 'NONE',  ( 0.000000000000000000, 0.000000000000000000, 1.000000000000000000 ) ) ;
#80 = DIRECTION ( 'NONE',  ( 0.000000000000000000, 0.000000000000000000, 1.000000000000000000 ) ) ;
#81 = DIRECTION ( 'NONE',  ( 1.000000000000000000, 0.000000000000000000, 0.000000000000000000 ) ) ;
#82 = CARTESIAN_POINT ( 'NONE',  ( -1.300000000000000266, 1.592040838891559342E-16, 2.199999999999993516 ) ) ;
#83 = DIRECTION ( 'NONE',  ( -1.000000000000000000, 0.000000000000000000, 0.000000000000000000 ) ) ;
#84 = CARTESIAN_POINT ( 'NONE',  ( -1.300000000000000266, 1.592040838891559342E-16, 1.999999999999996669 ) ) ;
#85 = ORIENTED_EDGE ( 'NONE', *, *, #248, .T. ) ;
#86 = DIRECTION ( 'NONE',  ( -0.000000000000000000, -0.000000000000000000, -1.000000000000000000 ) ) ;
#87 = ADVANCED_FACE ( 'NONE', ( #224 ), #57, .T. ) ;
#88 = DIRECTION ( 'NONE',  ( 1.000000000000000000, 0.000000000000000000, -0.000000000000000000 ) ) ;
#89 = ADVANCED_BREP_SHAPE_REPRESENTATION ( '9d0b', ( #77, #51 ), #11 ) ;
#90 = APPLICATION_PROTOCOL_DEFINITION ( 'international standard', 'config_control_design', 1994, #141 ) ;
#91 = VECTOR ( 'NONE', #39, 1000.000000000000000 ) ;
#92 = CIRCLE ( 'NONE', #176, 1.300000000000000266 ) ;
#93 = APPROVAL_STATUS ( 'not_yet_approved' ) ;
#94 = EDGE_CURVE ( 'NONE', #271, #266, #68, .T. ) ;
#95 = COORDINATED_UNIVERSAL_TIME_OFFSET ( 1, 0, .AHEAD. ) ;
#96 = DATE_AND_TIME ( #191, #111 ) ;
#97 = EDGE_CURVE ( 'NONE', #243, #271, #128, .T. ) ;
#98 = PERSON ( 'NEURÈENÝ', 'NEURÈENÝ', 'NEURÈENÝ', ('NEURÈENÝ'), ('NEURÈENÝ'), ('NEURÈENÝ') ) ;
#99 = EDGE_LOOP ( 'NONE', ( #293, #179 ) ) ;
#100 = ORIENTED_EDGE ( 'NONE', *, *, #220, .F. ) ;
#101 = DIRECTION ( 'NONE',  ( 1.000000000000000000, 0.000000000000000000, -0.000000000000000000 ) ) ;
#102 = DIRECTION ( 'NONE',  ( 0.000000000000000000, 0.000000000000000000, 1.000000000000000000 ) ) ;
#103 = ADVANCED_FACE ( 'NONE', ( #63 ), #65, .F. ) ;
#104 = ORIENTED_EDGE ( 'NONE', *, *, #43, .F. ) ;
#105 = FACE_OUTER_BOUND ( 'NONE', #30, .T. ) ;
#106 = DIRECTION ( 'NONE',  ( 1.000000000000000000, 0.000000000000000000, 0.000000000000000000 ) ) ;
#107 = DIRECTION ( 'NONE',  ( 0.000000000000000000, 0.000000000000000000, 1.000000000000000000 ) ) ;
#108 = ADVANCED_FACE ( 'NONE', ( #282 ), #184, .T. ) ;
#109 = CARTESIAN_POINT ( 'NONE',  ( 0.000000000000000000, 0.000000000000000000, 102.0000000000000142 ) ) ;
#110 = CARTESIAN_POINT ( 'NONE',  ( 0.000000000000000000, 0.000000000000000000, 2.000000000000000000 ) ) ;
#111 = LOCAL_TIME ( 12, 34, 50.00000000000000000, #140 ) ;
#112 = SECURITY_CLASSIFICATION_LEVEL ( 'unclassified' ) ;
#113 = COORDINATED_UNIVERSAL_TIME_OFFSET ( 1, 0, .AHEAD. ) ;
#114 = AXIS2_PLACEMENT_3D ( 'NONE', #41, #107, #233 ) ;
#115 = DATE_TIME_ROLE ( 'classification_date' ) ;
#116 = DIRECTION ( 'NONE',  ( 0.000000000000000000, 0.000000000000000000, 1.000000000000000000 ) ) ;
#117 = VERTEX_POINT ( 'NONE', #183 ) ;
#118 = VERTEX_POINT ( 'NONE', #178 ) ;
#119 = CC_DESIGN_APPROVAL ( #196, ( #54 ) ) ;
#120 = ORIENTED_EDGE ( 'NONE', *, *, #186, .T. ) ;
#121 = ORIENTED_EDGE ( 'NONE', *, *, #220, .T. ) ;
#122 = AXIS2_PLACEMENT_3D ( 'NONE', #66, #301, #201 ) ;
#123 = DIRECTION ( 'NONE',  ( 1.000000000000000000, 0.000000000000000000, 0.000000000000000000 ) ) ;
#124 = EDGE_CURVE ( 'NONE', #118, #6, #247, .T. ) ;
#125 = DIRECTION ( 'NONE',  ( 0.000000000000000000, 0.000000000000000000, 1.000000000000000000 ) ) ;
#126 = DIRECTION ( 'NONE',  ( 0.000000000000000000, 0.000000000000000000, 1.000000000000000000 ) ) ;
#127 = CARTESIAN_POINT ( 'NONE',  ( 0.000000000000000000, 0.000000000000000000, 2.199999999999993516 ) ) ;
#128 = CIRCLE ( 'NONE', #213, 0.2000000000000000944 ) ;
#129 = APPROVAL_PERSON_ORGANIZATION ( #47, #196, #46 ) ;
#130 = CARTESIAN_POINT ( 'NONE',  ( 1.300000000000000266, 0.000000000000000000, 1.999999999999996669 ) ) ;
#131 = CARTESIAN_POINT ( 'NONE',  ( 1.300000000000000266, 0.000000000000000000, 2.199999999999993516 ) ) ;
#132 = UNCERTAINTY_MEASURE_WITH_UNIT (LENGTH_MEASURE( 1.000000000000000082E-05 ), #64, 'distance_accuracy_value', 'NONE');
#133 = DIRECTION ( 'NONE',  ( -1.000000000000000000, 0.000000000000000000, 0.000000000000000000 ) ) ;
#134 = EDGE_LOOP ( 'NONE', ( #5, #26, #153, #146 ) ) ;
#135 = CARTESIAN_POINT ( 'NONE',  ( 1.100000000000000089, 1.347111479062088503E-16, 102.0000000000000142 ) ) ;
#136 = LINE ( 'NONE', #16, #76 ) ;
#137 = LOCAL_TIME ( 12, 34, 50.00000000000000000, #113 ) ;
#138 = CC_DESIGN_PERSON_AND_ORGANIZATION_ASSIGNMENT ( #239, #164, ( #54 ) ) ;
#139 = APPROVAL_ROLE ( '' ) ;
#140 = COORDINATED_UNIVERSAL_TIME_OFFSET ( 1, 0, .AHEAD. ) ;
#141 = APPLICATION_CONTEXT ( 'configuration controlled 3d designs of mechanical parts and assemblies' ) ;
#142 = ADVANCED_FACE ( 'NONE', ( #277 ), #156, .T. ) ;
#143 = APPROVAL_DATE_TIME ( #287, #199 ) ;
#144 = DATE_TIME_ROLE ( 'creation_date' ) ;
#145 = TOROIDAL_SURFACE ( 'NONE', #296, 1.300000000000000266, 0.2000000000000000111 ) ;
#146 = ORIENTED_EDGE ( 'NONE', *, *, #149, .T. ) ;
#147 = AXIS2_PLACEMENT_3D ( 'NONE', #127, #102, #294 ) ;
#148 = ORIENTED_EDGE ( 'NONE', *, *, #22, .F. ) ;
#149 = EDGE_CURVE ( 'NONE', #49, #243, #20, .T. ) ;
#150 = CARTESIAN_POINT ( 'NONE',  ( -1.100000000000000089, 0.000000000000000000, 102.0000000000000142 ) ) ;
#151 = APPLICATION_CONTEXT ( 'configuration controlled 3d designs of mechanical parts and assemblies' ) ;
#152 = CYLINDRICAL_SURFACE ( 'NONE', #32, 2.000000000000000000 ) ;
#153 = ORIENTED_EDGE ( 'NONE', *, *, #22, .T. ) ;
#154 = DIRECTION ( 'NONE',  ( 1.000000000000000000, 0.000000000000000000, 0.000000000000000000 ) ) ;
#155 = LINE ( 'NONE', #150, #91 ) ;
#156 = CYLINDRICAL_SURFACE ( 'NONE', #203, 1.100000000000000089 ) ;
#157 = ORIENTED_EDGE ( 'NONE', *, *, #94, .F. ) ;
#158 = DESIGN_CONTEXT ( 'detailed design', #141, 'design' ) ;
#159 = DIRECTION ( 'NONE',  ( 1.224646799147353207E-16, 1.000000000000000000, -0.000000000000000000 ) ) ;
#160 = AXIS2_PLACEMENT_3D ( 'NONE', #62, #86, #295 ) ;
#161 = EDGE_CURVE ( 'NONE', #49, #266, #237, .T. ) ;
#162 = PERSON_AND_ORGANIZATION_ROLE ( 'classification_officer' ) ;
#163 = ADVANCED_FACE ( 'NONE', ( #232 ), #145, .F. ) ;
#164 = PERSON_AND_ORGANIZATION_ROLE ( 'creator' ) ;
#165 = CIRCLE ( 'NONE', #267, 2.000000000000000000 ) ;
#166 = SHAPE_DEFINITION_REPRESENTATION ( #198, #89 ) ;
#167 = ORIENTED_EDGE ( 'NONE', *, *, #248, .F. ) ;
#168 = PRODUCT_RELATED_PRODUCT_CATEGORY ( 'detail', '', ( #241 ) ) ;
#169 = AXIS2_PLACEMENT_3D ( 'NONE', #226, #79, #81 ) ;
#170 = LOCAL_TIME ( 12, 34, 50.00000000000000000, #283 ) ;
#171 = EDGE_LOOP ( 'NONE', ( #253, #120, #208, #148 ) ) ;
#172 = ORIENTED_EDGE ( 'NONE', *, *, #8, .F. ) ;
#173 = ORIENTED_EDGE ( 'NONE', *, *, #161, .F. ) ;
#174 = AXIS2_PLACEMENT_3D ( 'NONE', #109, #13, #123 ) ;
#175 = ORIENTED_EDGE ( 'NONE', *, *, #279, .F. ) ;
#176 = AXIS2_PLACEMENT_3D ( 'NONE', #273, #37, #14 ) ;
#177 = SECURITY_CLASSIFICATION ( '', '', #112 ) ;
#178 = CARTESIAN_POINT ( 'NONE',  ( -2.000000000000000000, 0.000000000000000000, 2.000000000000000000 ) ) ;
#179 = ORIENTED_EDGE ( 'NONE', *, *, #263, .T. ) ;
#180 = DIRECTION ( 'NONE',  ( -1.000000000000000000, 0.000000000000000000, 0.000000000000000000 ) ) ;
#181 = CARTESIAN_POINT ( 'NONE',  ( 0.000000000000000000, 0.000000000000000000, 2.000000000000000000 ) ) ;
#182 = CLOSED_SHELL ( 'NONE', ( #163, #87, #108, #240, #212, #103, #142, #4, #31 ) ) ;
#183 = CARTESIAN_POINT ( 'NONE',  ( 2.000000000000000000, 2.449293598294706414E-16, 0.000000000000000000 ) ) ;
#184 = CYLINDRICAL_SURFACE ( 'NONE', #160, 2.000000000000000000 ) ;
#185 =( NAMED_UNIT ( * ) PLANE_ANGLE_UNIT ( ) SI_UNIT ( $, .RADIAN. ) );
#186 = EDGE_CURVE ( 'NONE', #53, #243, #250, .T. ) ;
#187 = PERSON_AND_ORGANIZATION ( #98, #190 ) ;
#188 = CIRCLE ( 'NONE', #202, 2.000000000000000000 ) ;
#189 = PERSON_AND_ORGANIZATION ( #98, #190 ) ;
#190 = ORGANIZATION ( 'NEURÈENÝ', 'NEURÈENÝ', '' ) ;
#191 = CALENDAR_DATE ( 2022, 7, 7 ) ;
#192 = CALENDAR_DATE ( 2022, 7, 7 ) ;
#193 = MECHANICAL_CONTEXT ( 'NONE', #151, 'mechanical' ) ;
#194 = CIRCLE ( 'NONE', #169, 1.100000000000000089 ) ;
#195 = CIRCLE ( 'NONE', #114, 2.000000000000000000 ) ;
#196 = APPROVAL ( #93, 'NEURÈENÝ' ) ;
#197 = ORIENTED_EDGE ( 'NONE', *, *, #263, .F. ) ;
#198 = PRODUCT_DEFINITION_SHAPE ( 'NONE', 'NONE',  #54 ) ;
#199 = APPROVAL ( #216, 'NEURÈENÝ' ) ;
#200 = ORIENTED_EDGE ( 'NONE', *, *, #124, .T. ) ;
#201 = DIRECTION ( 'NONE',  ( 1.000000000000000000, 0.000000000000000000, 0.000000000000000000 ) ) ;
#202 = AXIS2_PLACEMENT_3D ( 'NONE', #55, #59, #274 ) ;
#203 = AXIS2_PLACEMENT_3D ( 'NONE', #18, #255, #133 ) ;
#204 = CARTESIAN_POINT ( 'NONE',  ( -1.100000000000000089, 0.000000000000000000, 2.199999999999993516 ) ) ;
#205 = CARTESIAN_POINT ( 'NONE',  ( 0.000000000000000000, 0.000000000000000000, 2.000000000000000000 ) ) ;
#206 = FACE_OUTER_BOUND ( 'NONE', #29, .T. ) ;
#207 = CARTESIAN_POINT ( 'NONE',  ( 1.100000000000000089, 1.347111479062088503E-16, 2.199999999999993516 ) ) ;
#208 = ORIENTED_EDGE ( 'NONE', *, *, #279, .T. ) ;
#209 = DIRECTION ( 'NONE',  ( 1.000000000000000000, 0.000000000000000000, 0.000000000000000000 ) ) ;
#210 = CARTESIAN_POINT ( 'NONE',  ( 0.000000000000000000, 0.000000000000000000, 0.000000000000000000 ) ) ;
#211 = CARTESIAN_POINT ( 'NONE',  ( 0.000000000000000000, 0.000000000000000000, 2.199999999999993516 ) ) ;
#212 = ADVANCED_FACE ( 'NONE', ( #303, #307 ), #256, .T. ) ;
#213 = AXIS2_PLACEMENT_3D ( 'NONE', #131, #229, #302 ) ;
#214 = PERSON_AND_ORGANIZATION ( #98, #190 ) ;
#215 = AXIS2_PLACEMENT_3D ( 'NONE', #205, #42, #228 ) ;
#216 = APPROVAL_STATUS ( 'not_yet_approved' ) ;
#217 = CALENDAR_DATE ( 2022, 7, 7 ) ;
#218 = VERTEX_POINT ( 'NONE', #252 ) ;
#219 = CC_DESIGN_SECURITY_CLASSIFICATION ( #177, ( #297 ) ) ;
#220 = EDGE_CURVE ( 'NONE', #218, #117, #136, .T. ) ;
#221 = ORIENTED_EDGE ( 'NONE', *, *, #97, .T. ) ;
#222 = CC_DESIGN_APPROVAL ( #199, ( #177 ) ) ;
#223 = CARTESIAN_POINT ( 'NONE',  ( 0.000000000000000000, 0.000000000000000000, 102.0000000000000142 ) ) ;
#224 = FACE_OUTER_BOUND ( 'NONE', #171, .T. ) ;
#225 = DIRECTION ( 'NONE',  ( -0.000000000000000000, -0.000000000000000000, -1.000000000000000000 ) ) ;
#226 = CARTESIAN_POINT ( 'NONE',  ( 0.000000000000000000, 0.000000000000000000, 102.0000000000000142 ) ) ;
#227 = CC_DESIGN_PERSON_AND_ORGANIZATION_ASSIGNMENT ( #2, #162, ( #177 ) ) ;
#228 = DIRECTION ( 'NONE',  ( 1.000000000000000000, 0.000000000000000000, -0.000000000000000000 ) ) ;
#229 = DIRECTION ( 'NONE',  ( 0.000000000000000000, -1.000000000000000000, 0.000000000000000000 ) ) ;
#230 = DIRECTION ( 'NONE',  ( -0.000000000000000000, -0.000000000000000000, -1.000000000000000000 ) ) ;
#231 = ORIENTED_EDGE ( 'NONE', *, *, #94, .T. ) ;
#232 = FACE_OUTER_BOUND ( 'NONE', #242, .T. ) ;
#233 = DIRECTION ( 'NONE',  ( 1.000000000000000000, 0.000000000000000000, 0.000000000000000000 ) ) ;
#234 = EDGE_CURVE ( 'NONE', #266, #271, #92, .T. ) ;
#235 = CIRCLE ( 'NONE', #19, 2.000000000000000000 ) ;
#236 = COORDINATED_UNIVERSAL_TIME_OFFSET ( 1, 0, .AHEAD. ) ;
#237 = CIRCLE ( 'NONE', #304, 0.2000000000000000944 ) ;
#238 = CARTESIAN_POINT ( 'NONE',  ( 0.000000000000000000, 0.000000000000000000, 0.000000000000000000 ) ) ;
#239 = PERSON_AND_ORGANIZATION ( #98, #190 ) ;
#240 = ADVANCED_FACE ( 'NONE', ( #105 ), #152, .T. ) ;
#241 = PRODUCT ( '9d0b', '9d0b', '', ( #193 ) ) ;
#242 = EDGE_LOOP ( 'NONE', ( #291, #265, #157, #249 ) ) ;
#243 = VERTEX_POINT ( 'NONE', #207 ) ;
#244 = AXIS2_PLACEMENT_3D ( 'NONE', #211, #126, #209 ) ;
#245 = PLANE ( 'NONE',  #260 ) ;
#246 = ORIENTED_EDGE ( 'NONE', *, *, #124, .F. ) ;
#247 = LINE ( 'NONE', #21, #262 ) ;
#248 = EDGE_CURVE ( 'NONE', #6, #117, #195, .T. ) ;
#249 = ORIENTED_EDGE ( 'NONE', *, *, #97, .F. ) ;
#250 = LINE ( 'NONE', #135, #38 ) ;
#251 = DIRECTION ( 'NONE',  ( -0.000000000000000000, -0.000000000000000000, -1.000000000000000000 ) ) ;
#252 = CARTESIAN_POINT ( 'NONE',  ( 2.000000000000000000, 2.449293598294706414E-16, 2.000000000000000000 ) ) ;
#253 = ORIENTED_EDGE ( 'NONE', *, *, #50, .F. ) ;
#254 = CC_DESIGN_PERSON_AND_ORGANIZATION_ASSIGNMENT ( #214, #259, ( #297 ) ) ;
#255 = DIRECTION ( 'NONE',  ( -0.000000000000000000, -0.000000000000000000, -1.000000000000000000 ) ) ;
#256 = PLANE ( 'NONE',  #215 ) ;
#257 = APPROVAL_DATE_TIME ( #71, #196 ) ;
#258 = PERSON_AND_ORGANIZATION_ROLE ( 'design_owner' ) ;
#259 = PERSON_AND_ORGANIZATION_ROLE ( 'design_supplier' ) ;
#260 = AXIS2_PLACEMENT_3D ( 'NONE', #223, #9, #101 ) ;
#261 = CALENDAR_DATE ( 2022, 7, 7 ) ;
#262 = VECTOR ( 'NONE', #60, 1000.000000000000000 ) ;
#263 = EDGE_CURVE ( 'NONE', #218, #118, #165, .T. ) ;
#264 = PERSON_AND_ORGANIZATION ( #98, #190 ) ;
#265 = ORIENTED_EDGE ( 'NONE', *, *, #161, .T. ) ;
#266 = VERTEX_POINT ( 'NONE', #84 ) ;
#267 = AXIS2_PLACEMENT_3D ( 'NONE', #110, #275, #35 ) ;
#268 = EDGE_LOOP ( 'NONE', ( #197, #121, #52, #246 ) ) ;
#269 = CC_DESIGN_DATE_AND_TIME_ASSIGNMENT ( #24, #115, ( #177 ) ) ;
#270 = ORIENTED_EDGE ( 'NONE', *, *, #234, .F. ) ;
#271 = VERTEX_POINT ( 'NONE', #130 ) ;
#272 = CARTESIAN_POINT ( 'NONE',  ( 1.100000000000000089, 1.347111479062088503E-16, 102.0000000000000142 ) ) ;
#273 = CARTESIAN_POINT ( 'NONE',  ( 0.000000000000000000, 0.000000000000000000, 2.000000000000000000 ) ) ;
#274 = DIRECTION ( 'NONE',  ( 1.000000000000000000, 0.000000000000000000, 0.000000000000000000 ) ) ;
#275 = DIRECTION ( 'NONE',  ( 0.000000000000000000, 0.000000000000000000, 1.000000000000000000 ) ) ;
#276 = ORIENTED_EDGE ( 'NONE', *, *, #50, .T. ) ;
#277 = FACE_OUTER_BOUND ( 'NONE', #134, .T. ) ;
#278 = AXIS2_PLACEMENT_3D ( 'NONE', #181, #251, #106 ) ;
#279 = EDGE_CURVE ( 'NONE', #243, #49, #69, .T. ) ;
#280 = DIRECTION ( 'NONE',  ( -0.000000000000000000, -0.000000000000000000, -1.000000000000000000 ) ) ;
#281 = DIRECTION ( 'NONE',  ( -1.000000000000000000, 1.224646799147353207E-16, 0.000000000000000000 ) ) ;
#282 = FACE_OUTER_BOUND ( 'NONE', #268, .T. ) ;
#283 = COORDINATED_UNIVERSAL_TIME_OFFSET ( 1, 0, .AHEAD. ) ;
#284 = AXIS2_PLACEMENT_3D ( 'NONE', #300, #280, #83 ) ;
#285 = APPROVAL_STATUS ( 'not_yet_approved' ) ;
#286 = CC_DESIGN_PERSON_AND_ORGANIZATION_ASSIGNMENT ( #72, #23, ( #297 ) ) ;
#287 = DATE_AND_TIME ( #192, #306 ) ;
#288 = TOROIDAL_SURFACE ( 'NONE', #147, 1.300000000000000266, 0.2000000000000000111 ) ;
#289 = DIRECTION ( 'NONE',  ( 1.000000000000000000, 0.000000000000000000, 0.000000000000000000 ) ) ;
#290 = LOCAL_TIME ( 12, 34, 50.00000000000000000, #236 ) ;
#291 = ORIENTED_EDGE ( 'NONE', *, *, #149, .F. ) ;
#292 = CC_DESIGN_DATE_AND_TIME_ASSIGNMENT ( #45, #144, ( #54 ) ) ;
#293 = ORIENTED_EDGE ( 'NONE', *, *, #8, .T. ) ;
#294 = DIRECTION ( 'NONE',  ( 1.000000000000000000, 0.000000000000000000, 0.000000000000000000 ) ) ;
#295 = DIRECTION ( 'NONE',  ( -1.000000000000000000, 0.000000000000000000, 0.000000000000000000 ) ) ;
#296 = AXIS2_PLACEMENT_3D ( 'NONE', #299, #80, #154 ) ;
#297 = PRODUCT_DEFINITION_FORMATION_WITH_SPECIFIED_SOURCE ( 'LIBOVOLNÝ', '', #241, .NOT_KNOWN. ) ;
#298 = EDGE_LOOP ( 'NONE', ( #173, #175, #221, #270 ) ) ;
#299 = CARTESIAN_POINT ( 'NONE',  ( 0.000000000000000000, 0.000000000000000000, 2.199999999999993516 ) ) ;
#300 = CARTESIAN_POINT ( 'NONE',  ( 0.000000000000000000, 0.000000000000000000, 102.0000000000000142 ) ) ;
#301 = DIRECTION ( 'NONE',  ( 0.000000000000000000, 0.000000000000000000, 1.000000000000000000 ) ) ;
#302 = DIRECTION ( 'NONE',  ( 0.000000000000000000, 0.000000000000000000, -1.000000000000000000 ) ) ;
#303 = FACE_BOUND ( 'NONE', #61, .T. ) ;
#304 = AXIS2_PLACEMENT_3D ( 'NONE', #82, #159, #281 ) ;
#305 = DIRECTION ( 'NONE',  ( 0.000000000000000000, 0.000000000000000000, 1.000000000000000000 ) ) ;
#306 = LOCAL_TIME ( 12, 34, 50.00000000000000000, #95 ) ;
#307 = FACE_OUTER_BOUND ( 'NONE', #99, .T. ) ;
ENDSEC;
END-ISO-10303-21;
