ISO-10303-21;
HEADER;
FILE_DESCRIPTION (( 'STEP AP203' ),
    '1' );
FILE_NAME ('957b.STEP',
    '2022-07-07T10:21:57',
    ( '' ),
    ( '' ),
    'SwSTEP 2.0',
    'SolidWorks 2019',
    '' );
FILE_SCHEMA (( 'CONFIG_CONTROL_DESIGN' ));
ENDSEC;

DATA;
#1 = CIRCLE ( 'NONE', #167, 4.000000000000000000 ) ;
#2 = VERTEX_POINT ( 'NONE', #157 ) ;
#3 = VERTEX_POINT ( 'NONE', #69 ) ;
#4 = DIRECTION ( 'NONE',  ( 1.000000000000000000, 0.000000000000000000, 0.000000000000000000 ) ) ;
#5 = CC_DESIGN_DATE_AND_TIME_ASSIGNMENT ( #41, #132, ( #163 ) ) ;
#6 = PLANE ( 'NONE',  #230 ) ;
#7 = AXIS2_PLACEMENT_3D ( 'NONE', #125, #103, #166 ) ;
#8 = CARTESIAN_POINT ( 'NONE',  ( 2.449999999999999734, 0.000000000000000000, 3.000000000000004441 ) ) ;
#9 = CARTESIAN_POINT ( 'NONE',  ( -2.250000000000000000, 0.000000000000000000, 3.200000000000008171 ) ) ;
#10 = CARTESIAN_POINT ( 'NONE',  ( -2.250000000000000000, 0.000000000000000000, 203.0000000000000000 ) ) ;
#11 = CARTESIAN_POINT ( 'NONE',  ( 0.000000000000000000, 0.000000000000000000, 203.0000000000000000 ) ) ;
#12 = ADVANCED_FACE ( 'NONE', ( #79 ), #118, .T. ) ;
#13 =( LENGTH_UNIT ( ) NAMED_UNIT ( * ) SI_UNIT ( .MILLI., .METRE. ) );
#14 = SHAPE_DEFINITION_REPRESENTATION ( #228, #102 ) ;
#15 = CC_DESIGN_APPROVAL ( #255, ( #139 ) ) ;
#16 = DIRECTION ( 'NONE',  ( 1.000000000000000000, 0.000000000000000000, 0.000000000000000000 ) ) ;
#17 = APPROVAL ( #303, 'NEURÈENÝ' ) ;
#18 = DIRECTION ( 'NONE',  ( 0.000000000000000000, 0.000000000000000000, 1.000000000000000000 ) ) ;
#19 = PERSON_AND_ORGANIZATION_ROLE ( 'creator' ) ;
#20 = ORIENTED_EDGE ( 'NONE', *, *, #193, .T. ) ;
#21 = ORIENTED_EDGE ( 'NONE', *, *, #234, .T. ) ;
#22 = AXIS2_PLACEMENT_3D ( 'NONE', #93, #187, #52 ) ;
#23 = CALENDAR_DATE ( 2022, 7, 7 ) ;
#24 = AXIS2_PLACEMENT_3D ( 'NONE', #243, #149, #273 ) ;
#25 = ORIENTED_EDGE ( 'NONE', *, *, #234, .F. ) ;
#26 = EDGE_LOOP ( 'NONE', ( #20, #161 ) ) ;
#27 = AXIS2_PLACEMENT_3D ( 'NONE', #55, #296, #244 ) ;
#28 = CIRCLE ( 'NONE', #91, 2.250000000000000000 ) ;
#29 = FACE_OUTER_BOUND ( 'NONE', #71, .T. ) ;
#30 = EDGE_LOOP ( 'NONE', ( #21, #136 ) ) ;
#31 = FACE_OUTER_BOUND ( 'NONE', #49, .T. ) ;
#32 = DIRECTION ( 'NONE',  ( 0.000000000000000000, 0.000000000000000000, -1.000000000000000000 ) ) ;
#33 = ORGANIZATION ( 'NEURÈENÝ', 'NEURÈENÝ', '' ) ;
#34 = DIRECTION ( 'NONE',  ( 0.000000000000000000, 0.000000000000000000, 1.000000000000000000 ) ) ;
#35 = LINE ( 'NONE', #123, #192 ) ;
#36 = APPLICATION_CONTEXT ( 'configuration controlled 3d designs of mechanical parts and assemblies' ) ;
#37 = CARTESIAN_POINT ( 'NONE',  ( 0.000000000000000000, 0.000000000000000000, 0.000000000000000000 ) ) ;
#38 = AXIS2_PLACEMENT_3D ( 'NONE', #78, #304, #284 ) ;
#39 = DATE_AND_TIME ( #248, #146 ) ;
#40 = PRODUCT_DEFINITION_FORMATION_WITH_SPECIFIED_SOURCE ( 'LIBOVOLNÝ', '', #281, .NOT_KNOWN. ) ;
#41 = DATE_AND_TIME ( #251, #74 ) ;
#42 = CARTESIAN_POINT ( 'NONE',  ( 0.000000000000000000, 0.000000000000000000, 3.000000000000000000 ) ) ;
#43 = DATE_AND_TIME ( #253, #279 ) ;
#44 = DIRECTION ( 'NONE',  ( 1.000000000000000000, 0.000000000000000000, 0.000000000000000000 ) ) ;
#45 = DIRECTION ( 'NONE',  ( 1.000000000000000000, 0.000000000000000000, 0.000000000000000000 ) ) ;
#46 = ORIENTED_EDGE ( 'NONE', *, *, #153, .F. ) ;
#47 = AXIS2_PLACEMENT_3D ( 'NONE', #252, #213, #261 ) ;
#48 = ORIENTED_EDGE ( 'NONE', *, *, #108, .F. ) ;
#49 = EDGE_LOOP ( 'NONE', ( #46, #159, #305, #233 ) ) ;
#50 = APPLICATION_CONTEXT ( 'configuration controlled 3d designs of mechanical parts and assemblies' ) ;
#51 = ADVANCED_FACE ( 'NONE', ( #29 ), #162, .F. ) ;
#52 = DIRECTION ( 'NONE',  ( 1.000000000000000000, 0.000000000000000000, 0.000000000000000000 ) ) ;
#53 = ORIENTED_EDGE ( 'NONE', *, *, #293, .F. ) ;
#54 = ORIENTED_EDGE ( 'NONE', *, *, #193, .F. ) ;
#55 = CARTESIAN_POINT ( 'NONE',  ( -2.449999999999999734, 3.000384657911015370E-16, 3.200000000000008171 ) ) ;
#56 = FACE_OUTER_BOUND ( 'NONE', #258, .T. ) ;
#57 = CIRCLE ( 'NONE', #137, 2.449999999999999734 ) ;
#58 = CARTESIAN_POINT ( 'NONE',  ( 0.000000000000000000, 0.000000000000000000, 3.000000000000000000 ) ) ;
#59 = DIRECTION ( 'NONE',  ( 1.000000000000000000, 0.000000000000000000, 0.000000000000000000 ) ) ;
#60 = ADVANCED_FACE ( 'NONE', ( #31 ), #245, .F. ) ;
#61 = DIRECTION ( 'NONE',  ( 0.000000000000000000, 0.000000000000000000, 1.000000000000000000 ) ) ;
#62 = APPROVAL ( #299, 'NEURÈENÝ' ) ;
#63 = CIRCLE ( 'NONE', #27, 0.2000000000000000944 ) ;
#64 = APPROVAL_ROLE ( '' ) ;
#65 = PERSON_AND_ORGANIZATION_ROLE ( 'design_owner' ) ;
#66 = ADVANCED_FACE ( 'NONE', ( #98 ), #176, .T. ) ;
#67 = VECTOR ( 'NONE', #76, 1000.000000000000000 ) ;
#68 = COORDINATED_UNIVERSAL_TIME_OFFSET ( 1, 0, .AHEAD. ) ;
#69 = CARTESIAN_POINT ( 'NONE',  ( -2.250000000000000000, 0.000000000000000000, 203.0000000000000000 ) ) ;
#70 = APPROVAL_ROLE ( '' ) ;
#71 = EDGE_LOOP ( 'NONE', ( #210, #142, #54, #285 ) ) ;
#72 = PRODUCT_RELATED_PRODUCT_CATEGORY ( 'detail', '', ( #281 ) ) ;
#73 = CIRCLE ( 'NONE', #158, 4.000000000000000000 ) ;
#74 = LOCAL_TIME ( 12, 21, 57.00000000000000000, #68 ) ;
#75 = ADVANCED_FACE ( 'NONE', ( #201 ), #6, .F. ) ;
#76 = DIRECTION ( 'NONE',  ( -0.000000000000000000, -0.000000000000000000, -1.000000000000000000 ) ) ;
#77 = VERTEX_POINT ( 'NONE', #257 ) ;
#78 = CARTESIAN_POINT ( 'NONE',  ( 0.000000000000000000, 0.000000000000000000, 203.0000000000000000 ) ) ;
#79 = FACE_OUTER_BOUND ( 'NONE', #114, .T. ) ;
#80 = CARTESIAN_POINT ( 'NONE',  ( 2.250000000000000000, 2.755455298081544285E-16, 3.200000000000008171 ) ) ;
#81 = EDGE_CURVE ( 'NONE', #237, #141, #215, .T. ) ;
#82 = DIRECTION ( 'NONE',  ( 0.000000000000000000, 0.000000000000000000, 1.000000000000000000 ) ) ;
#83 = DIRECTION ( 'NONE',  ( -0.000000000000000000, -0.000000000000000000, -1.000000000000000000 ) ) ;
#84 = FACE_OUTER_BOUND ( 'NONE', #30, .T. ) ;
#85 = DATE_TIME_ROLE ( 'classification_date' ) ;
#86 = AXIS2_PLACEMENT_3D ( 'NONE', #11, #61, #194 ) ;
#87 = CALENDAR_DATE ( 2022, 7, 7 ) ;
#88 = ADVANCED_FACE ( 'NONE', ( #133 ), #265, .T. ) ;
#89 = DIRECTION ( 'NONE',  ( -0.000000000000000000, -0.000000000000000000, -1.000000000000000000 ) ) ;
#90 = CLOSED_SHELL ( 'NONE', ( #51, #12, #168, #88, #264, #75, #66, #185, #60 ) ) ;
#91 = AXIS2_PLACEMENT_3D ( 'NONE', #292, #82, #59 ) ;
#92 = PERSON_AND_ORGANIZATION_ROLE ( 'design_supplier' ) ;
#93 = CARTESIAN_POINT ( 'NONE',  ( 0.000000000000000000, 0.000000000000000000, 3.200000000000008171 ) ) ;
#94 = ORIENTED_EDGE ( 'NONE', *, *, #140, .F. ) ;
#95 = EDGE_CURVE ( 'NONE', #77, #2, #73, .T. ) ;
#96 = VERTEX_POINT ( 'NONE', #188 ) ;
#97 = ORIENTED_EDGE ( 'NONE', *, *, #267, .T. ) ;
#98 = FACE_OUTER_BOUND ( 'NONE', #113, .T. ) ;
#99 = CARTESIAN_POINT ( 'NONE',  ( 0.000000000000000000, 0.000000000000000000, 0.000000000000000000 ) ) ;
#100 = AXIS2_PLACEMENT_3D ( 'NONE', #217, #147, #145 ) ;
#101 = FACE_OUTER_BOUND ( 'NONE', #263, .T. ) ;
#102 = ADVANCED_BREP_SHAPE_REPRESENTATION ( '957b', ( #236, #294 ), #124 ) ;
#103 = DIRECTION ( 'NONE',  ( 0.000000000000000000, 0.000000000000000000, 1.000000000000000000 ) ) ;
#104 = CYLINDRICAL_SURFACE ( 'NONE', #297, 4.000000000000000000 ) ;
#105 = CIRCLE ( 'NONE', #7, 2.250000000000000000 ) ;
#106 = CARTESIAN_POINT ( 'NONE',  ( -2.449999999999999734, 3.000384657911015370E-16, 3.000000000000004441 ) ) ;
#107 = CIRCLE ( 'NONE', #241, 4.000000000000000000 ) ;
#108 = EDGE_CURVE ( 'NONE', #260, #96, #152, .T. ) ;
#109 = DIRECTION ( 'NONE',  ( 0.000000000000000000, 0.000000000000000000, 1.000000000000000000 ) ) ;
#110 = ORIENTED_EDGE ( 'NONE', *, *, #293, .T. ) ;
#111 = PERSON_AND_ORGANIZATION ( #269, #33 ) ;
#112 = CC_DESIGN_PERSON_AND_ORGANIZATION_ASSIGNMENT ( #175, #65, ( #281 ) ) ;
#113 = EDGE_LOOP ( 'NONE', ( #94, #25, #238, #97 ) ) ;
#114 = EDGE_LOOP ( 'NONE', ( #116, #121, #205, #227 ) ) ;
#115 = PERSON_AND_ORGANIZATION ( #269, #33 ) ;
#116 = ORIENTED_EDGE ( 'NONE', *, *, #222, .F. ) ;
#117 = CC_DESIGN_SECURITY_CLASSIFICATION ( #139, ( #40 ) ) ;
#118 = CYLINDRICAL_SURFACE ( 'NONE', #38, 2.250000000000000000 ) ;
#119 = DIRECTION ( 'NONE',  ( 0.000000000000000000, 0.000000000000000000, 1.000000000000000000 ) ) ;
#120 = VERTEX_POINT ( 'NONE', #135 ) ;
#121 = ORIENTED_EDGE ( 'NONE', *, *, #140, .T. ) ;
#122 = AXIS2_PLACEMENT_3D ( 'NONE', #42, #301, #232 ) ;
#123 = CARTESIAN_POINT ( 'NONE',  ( 4.000000000000000000, 4.898587196589412829E-16, 3.000000000000000000 ) ) ;
#124 =( GEOMETRIC_REPRESENTATION_CONTEXT ( 3 ) GLOBAL_UNCERTAINTY_ASSIGNED_CONTEXT ( ( #271 ) ) GLOBAL_UNIT_ASSIGNED_CONTEXT ( ( #13, #266, #300 ) ) REPRESENTATION_CONTEXT ( 'NONE', 'WORKASPACE' ) );
#125 = CARTESIAN_POINT ( 'NONE',  ( 0.000000000000000000, 0.000000000000000000, 3.200000000000008171 ) ) ;
#126 = DIRECTION ( 'NONE',  ( -0.000000000000000000, -0.000000000000000000, -1.000000000000000000 ) ) ;
#127 = CC_DESIGN_PERSON_AND_ORGANIZATION_ASSIGNMENT ( #298, #156, ( #139 ) ) ;
#128 = DIRECTION ( 'NONE',  ( 1.000000000000000000, 0.000000000000000000, 0.000000000000000000 ) ) ;
#129 = LOCAL_TIME ( 12, 21, 57.00000000000000000, #256 ) ;
#130 = CARTESIAN_POINT ( 'NONE',  ( -4.000000000000000000, 0.000000000000000000, 3.000000000000000000 ) ) ;
#131 = APPROVAL_DATE_TIME ( #39, #255 ) ;
#132 = DATE_TIME_ROLE ( 'creation_date' ) ;
#133 = FACE_OUTER_BOUND ( 'NONE', #179, .T. ) ;
#134 = APPROVAL_DATE_TIME ( #43, #17 ) ;
#135 = CARTESIAN_POINT ( 'NONE',  ( 2.250000000000000000, 2.755455298081544285E-16, 203.0000000000000000 ) ) ;
#136 = ORIENTED_EDGE ( 'NONE', *, *, #222, .T. ) ;
#137 = AXIS2_PLACEMENT_3D ( 'NONE', #58, #242, #148 ) ;
#138 = ORIENTED_EDGE ( 'NONE', *, *, #174, .F. ) ;
#139 = SECURITY_CLASSIFICATION ( '', '', #177 ) ;
#140 = EDGE_CURVE ( 'NONE', #120, #182, #160, .T. ) ;
#141 = VERTEX_POINT ( 'NONE', #8 ) ;
#142 = ORIENTED_EDGE ( 'NONE', *, *, #153, .T. ) ;
#143 = ORIENTED_EDGE ( 'NONE', *, *, #108, .T. ) ;
#144 = CARTESIAN_POINT ( 'NONE',  ( 0.000000000000000000, 0.000000000000000000, 3.000000000000000000 ) ) ;
#145 = DIRECTION ( 'NONE',  ( 1.000000000000000000, 0.000000000000000000, -0.000000000000000000 ) ) ;
#146 = LOCAL_TIME ( 12, 21, 57.00000000000000000, #150 ) ;
#147 = DIRECTION ( 'NONE',  ( 0.000000000000000000, 0.000000000000000000, 1.000000000000000000 ) ) ;
#148 = DIRECTION ( 'NONE',  ( 1.000000000000000000, 0.000000000000000000, 0.000000000000000000 ) ) ;
#149 = DIRECTION ( 'NONE',  ( 0.000000000000000000, 0.000000000000000000, 1.000000000000000000 ) ) ;
#150 = COORDINATED_UNIVERSAL_TIME_OFFSET ( 1, 0, .AHEAD. ) ;
#151 = PERSON_AND_ORGANIZATION_ROLE ( 'creator' ) ;
#152 = CIRCLE ( 'NONE', #220, 4.000000000000000000 ) ;
#153 = EDGE_CURVE ( 'NONE', #239, #237, #63, .T. ) ;
#154 = COORDINATED_UNIVERSAL_TIME_OFFSET ( 1, 0, .AHEAD. ) ;
#155 = CARTESIAN_POINT ( 'NONE',  ( 0.000000000000000000, 0.000000000000000000, 3.000000000000000000 ) ) ;
#156 = PERSON_AND_ORGANIZATION_ROLE ( 'classification_officer' ) ;
#157 = CARTESIAN_POINT ( 'NONE',  ( -4.000000000000000000, 0.000000000000000000, 0.000000000000000000 ) ) ;
#158 = AXIS2_PLACEMENT_3D ( 'NONE', #99, #18, #45 ) ;
#159 = ORIENTED_EDGE ( 'NONE', *, *, #272, .F. ) ;
#160 = LINE ( 'NONE', #229, #67 ) ;
#161 = ORIENTED_EDGE ( 'NONE', *, *, #81, .T. ) ;
#162 = TOROIDAL_SURFACE ( 'NONE', #203, 2.449999999999999734, 0.2000000000000000111 ) ;
#163 = PRODUCT_DEFINITION ( 'NEZNÁMÝ', '', #40, #214 ) ;
#164 = CARTESIAN_POINT ( 'NONE',  ( 0.000000000000000000, 0.000000000000000000, 0.000000000000000000 ) ) ;
#165 = DIRECTION ( 'NONE',  ( 1.000000000000000000, 0.000000000000000000, -0.000000000000000000 ) ) ;
#166 = DIRECTION ( 'NONE',  ( 1.000000000000000000, 0.000000000000000000, 0.000000000000000000 ) ) ;
#167 = AXIS2_PLACEMENT_3D ( 'NONE', #144, #34, #291 ) ;
#168 = ADVANCED_FACE ( 'NONE', ( #101 ), #104, .T. ) ;
#169 = CARTESIAN_POINT ( 'NONE',  ( 0.000000000000000000, 0.000000000000000000, 203.0000000000000000 ) ) ;
#170 = CARTESIAN_POINT ( 'NONE',  ( 0.000000000000000000, 0.000000000000000000, 3.000000000000000000 ) ) ;
#171 = PERSON_AND_ORGANIZATION ( #269, #33 ) ;
#172 = APPLICATION_PROTOCOL_DEFINITION ( 'international standard', 'config_control_design', 1994, #36 ) ;
#173 = DATE_AND_TIME ( #87, #225 ) ;
#174 = EDGE_CURVE ( 'NONE', #96, #2, #189, .T. ) ;
#175 = PERSON_AND_ORGANIZATION ( #269, #33 ) ;
#176 = CYLINDRICAL_SURFACE ( 'NONE', #47, 2.250000000000000000 ) ;
#177 = SECURITY_CLASSIFICATION_LEVEL ( 'unclassified' ) ;
#178 = ORIENTED_EDGE ( 'NONE', *, *, #282, .T. ) ;
#179 = EDGE_LOOP ( 'NONE', ( #53, #212, #306, #178 ) ) ;
#180 = CC_DESIGN_DATE_AND_TIME_ASSIGNMENT ( #207, #85, ( #139 ) ) ;
#181 = AXIS2_PLACEMENT_3D ( 'NONE', #169, #190, #165 ) ;
#182 = VERTEX_POINT ( 'NONE', #80 ) ;
#183 = ORIENTED_EDGE ( 'NONE', *, *, #95, .F. ) ;
#184 = CARTESIAN_POINT ( 'NONE',  ( 0.000000000000000000, 0.000000000000000000, 3.000000000000000000 ) ) ;
#185 = ADVANCED_FACE ( 'NONE', ( #84 ), #218, .T. ) ;
#186 = ORIENTED_EDGE ( 'NONE', *, *, #95, .T. ) ;
#187 = DIRECTION ( 'NONE',  ( 0.000000000000000000, 0.000000000000000000, 1.000000000000000000 ) ) ;
#188 = CARTESIAN_POINT ( 'NONE',  ( -4.000000000000000000, 0.000000000000000000, 3.000000000000000000 ) ) ;
#189 = LINE ( 'NONE', #130, #231 ) ;
#190 = DIRECTION ( 'NONE',  ( 0.000000000000000000, 0.000000000000000000, 1.000000000000000000 ) ) ;
#191 = CARTESIAN_POINT ( 'NONE',  ( 2.449999999999999734, 0.000000000000000000, 3.200000000000008171 ) ) ;
#192 = VECTOR ( 'NONE', #126, 1000.000000000000000 ) ;
#193 = EDGE_CURVE ( 'NONE', #141, #237, #57, .T. ) ;
#194 = DIRECTION ( 'NONE',  ( 1.000000000000000000, 0.000000000000000000, 0.000000000000000000 ) ) ;
#195 = CC_DESIGN_PERSON_AND_ORGANIZATION_ASSIGNMENT ( #226, #151, ( #163 ) ) ;
#196 = CC_DESIGN_PERSON_AND_ORGANIZATION_ASSIGNMENT ( #111, #92, ( #40 ) ) ;
#197 = PLANE ( 'NONE',  #100 ) ;
#198 = CC_DESIGN_APPROVAL ( #62, ( #163 ) ) ;
#199 = PERSON_AND_ORGANIZATION ( #269, #33 ) ;
#200 = PERSON_AND_ORGANIZATION ( #269, #33 ) ;
#201 = FACE_OUTER_BOUND ( 'NONE', #206, .T. ) ;
#202 = APPLICATION_PROTOCOL_DEFINITION ( 'international standard', 'config_control_design', 1994, #50 ) ;
#203 = AXIS2_PLACEMENT_3D ( 'NONE', #290, #119, #4 ) ;
#204 = APPROVAL_PERSON_ORGANIZATION ( #171, #255, #64 ) ;
#205 = ORIENTED_EDGE ( 'NONE', *, *, #272, .T. ) ;
#206 = EDGE_LOOP ( 'NONE', ( #287, #183 ) ) ;
#207 = DATE_AND_TIME ( #23, #129 ) ;
#208 = CC_DESIGN_PERSON_AND_ORGANIZATION_ASSIGNMENT ( #115, #19, ( #40 ) ) ;
#209 = CC_DESIGN_APPROVAL ( #17, ( #40 ) ) ;
#210 = ORIENTED_EDGE ( 'NONE', *, *, #267, .F. ) ;
#211 = DIRECTION ( 'NONE',  ( 1.000000000000000000, 0.000000000000000000, -0.000000000000000000 ) ) ;
#212 = ORIENTED_EDGE ( 'NONE', *, *, #250, .F. ) ;
#213 = DIRECTION ( 'NONE',  ( -0.000000000000000000, -0.000000000000000000, -1.000000000000000000 ) ) ;
#214 = DESIGN_CONTEXT ( 'detailed design', #50, 'design' ) ;
#215 = CIRCLE ( 'NONE', #122, 2.449999999999999734 ) ;
#216 = VECTOR ( 'NONE', #221, 1000.000000000000000 ) ;
#217 = CARTESIAN_POINT ( 'NONE',  ( 0.000000000000000000, 0.000000000000000000, 3.000000000000000000 ) ) ;
#218 = PLANE ( 'NONE',  #181 ) ;
#219 = LINE ( 'NONE', #10, #216 ) ;
#220 = AXIS2_PLACEMENT_3D ( 'NONE', #184, #288, #44 ) ;
#221 = DIRECTION ( 'NONE',  ( -0.000000000000000000, -0.000000000000000000, -1.000000000000000000 ) ) ;
#222 = EDGE_CURVE ( 'NONE', #120, #3, #275, .T. ) ;
#223 = DIRECTION ( 'NONE',  ( 0.000000000000000000, 0.000000000000000000, 1.000000000000000000 ) ) ;
#224 = MECHANICAL_CONTEXT ( 'NONE', #36, 'mechanical' ) ;
#225 = LOCAL_TIME ( 12, 21, 57.00000000000000000, #278 ) ;
#226 = PERSON_AND_ORGANIZATION ( #269, #33 ) ;
#227 = ORIENTED_EDGE ( 'NONE', *, *, #302, .F. ) ;
#228 = PRODUCT_DEFINITION_SHAPE ( 'NONE', 'NONE',  #163 ) ;
#229 = CARTESIAN_POINT ( 'NONE',  ( 2.250000000000000000, 2.755455298081544285E-16, 203.0000000000000000 ) ) ;
#230 = AXIS2_PLACEMENT_3D ( 'NONE', #164, #289, #211 ) ;
#231 = VECTOR ( 'NONE', #295, 1000.000000000000000 ) ;
#232 = DIRECTION ( 'NONE',  ( 1.000000000000000000, 0.000000000000000000, 0.000000000000000000 ) ) ;
#233 = ORIENTED_EDGE ( 'NONE', *, *, #81, .F. ) ;
#234 = EDGE_CURVE ( 'NONE', #3, #120, #28, .T. ) ;
#235 = CIRCLE ( 'NONE', #259, 0.2000000000000000944 ) ;
#236 = MANIFOLD_SOLID_BREP ( 'Zaoblit1', #90 ) ;
#237 = VERTEX_POINT ( 'NONE', #106 ) ;
#238 = ORIENTED_EDGE ( 'NONE', *, *, #302, .T. ) ;
#239 = VERTEX_POINT ( 'NONE', #9 ) ;
#240 = AXIS2_PLACEMENT_3D ( 'NONE', #155, #89, #254 ) ;
#241 = AXIS2_PLACEMENT_3D ( 'NONE', #37, #223, #128 ) ;
#242 = DIRECTION ( 'NONE',  ( -0.000000000000000000, -0.000000000000000000, -1.000000000000000000 ) ) ;
#243 = CARTESIAN_POINT ( 'NONE',  ( 0.000000000000000000, 0.000000000000000000, 3.200000000000008171 ) ) ;
#244 = DIRECTION ( 'NONE',  ( -1.000000000000000000, 1.224646799147353207E-16, 0.000000000000000000 ) ) ;
#245 = TOROIDAL_SURFACE ( 'NONE', #22, 2.449999999999999734, 0.2000000000000000111 ) ;
#246 = CIRCLE ( 'NONE', #24, 2.250000000000000000 ) ;
#247 = DIRECTION ( 'NONE',  ( 0.000000000000000000, -1.000000000000000000, 0.000000000000000000 ) ) ;
#248 = CALENDAR_DATE ( 2022, 7, 7 ) ;
#249 = CARTESIAN_POINT ( 'NONE',  ( 0.000000000000000000, 0.000000000000000000, 0.000000000000000000 ) ) ;
#250 = EDGE_CURVE ( 'NONE', #96, #260, #1, .T. ) ;
#251 = CALENDAR_DATE ( 2022, 7, 7 ) ;
#252 = CARTESIAN_POINT ( 'NONE',  ( 0.000000000000000000, 0.000000000000000000, 203.0000000000000000 ) ) ;
#253 = CALENDAR_DATE ( 2022, 7, 7 ) ;
#254 = DIRECTION ( 'NONE',  ( -1.000000000000000000, 0.000000000000000000, 0.000000000000000000 ) ) ;
#255 = APPROVAL ( #276, 'NEURÈENÝ' ) ;
#256 = COORDINATED_UNIVERSAL_TIME_OFFSET ( 1, 0, .AHEAD. ) ;
#257 = CARTESIAN_POINT ( 'NONE',  ( 4.000000000000000000, 4.898587196589412829E-16, 0.000000000000000000 ) ) ;
#258 = EDGE_LOOP ( 'NONE', ( #280, #143 ) ) ;
#259 = AXIS2_PLACEMENT_3D ( 'NONE', #191, #247, #32 ) ;
#260 = VERTEX_POINT ( 'NONE', #270 ) ;
#261 = DIRECTION ( 'NONE',  ( -1.000000000000000000, 0.000000000000000000, 0.000000000000000000 ) ) ;
#262 = APPROVAL_PERSON_ORGANIZATION ( #199, #62, #283 ) ;
#263 = EDGE_LOOP ( 'NONE', ( #48, #110, #186, #138 ) ) ;
#264 = ADVANCED_FACE ( 'NONE', ( #268, #56 ), #197, .T. ) ;
#265 = CYLINDRICAL_SURFACE ( 'NONE', #240, 4.000000000000000000 ) ;
#266 =( NAMED_UNIT ( * ) PLANE_ANGLE_UNIT ( ) SI_UNIT ( $, .RADIAN. ) );
#267 = EDGE_CURVE ( 'NONE', #239, #182, #105, .T. ) ;
#268 = FACE_BOUND ( 'NONE', #26, .T. ) ;
#269 = PERSON ( 'NEURÈENÝ', 'NEURÈENÝ', 'NEURÈENÝ', ('NEURÈENÝ'), ('NEURÈENÝ'), ('NEURÈENÝ') ) ;
#270 = CARTESIAN_POINT ( 'NONE',  ( 4.000000000000000000, 4.898587196589412829E-16, 3.000000000000000000 ) ) ;
#271 = UNCERTAINTY_MEASURE_WITH_UNIT (LENGTH_MEASURE( 1.000000000000000082E-05 ), #13, 'distance_accuracy_value', 'NONE');
#272 = EDGE_CURVE ( 'NONE', #182, #239, #246, .T. ) ;
#273 = DIRECTION ( 'NONE',  ( 1.000000000000000000, 0.000000000000000000, 0.000000000000000000 ) ) ;
#274 = DIRECTION ( 'NONE',  ( -1.000000000000000000, 0.000000000000000000, 0.000000000000000000 ) ) ;
#275 = CIRCLE ( 'NONE', #86, 2.250000000000000000 ) ;
#276 = APPROVAL_STATUS ( 'not_yet_approved' ) ;
#277 = APPROVAL_DATE_TIME ( #173, #62 ) ;
#278 = COORDINATED_UNIVERSAL_TIME_OFFSET ( 1, 0, .AHEAD. ) ;
#279 = LOCAL_TIME ( 12, 21, 57.00000000000000000, #154 ) ;
#280 = ORIENTED_EDGE ( 'NONE', *, *, #250, .T. ) ;
#281 = PRODUCT ( '957b', '957b', '', ( #224 ) ) ;
#282 = EDGE_CURVE ( 'NONE', #2, #77, #107, .T. ) ;
#283 = APPROVAL_ROLE ( '' ) ;
#284 = DIRECTION ( 'NONE',  ( -1.000000000000000000, 0.000000000000000000, 0.000000000000000000 ) ) ;
#285 = ORIENTED_EDGE ( 'NONE', *, *, #307, .F. ) ;
#286 = APPROVAL_PERSON_ORGANIZATION ( #200, #17, #70 ) ;
#287 = ORIENTED_EDGE ( 'NONE', *, *, #282, .F. ) ;
#288 = DIRECTION ( 'NONE',  ( 0.000000000000000000, 0.000000000000000000, 1.000000000000000000 ) ) ;
#289 = DIRECTION ( 'NONE',  ( 0.000000000000000000, 0.000000000000000000, 1.000000000000000000 ) ) ;
#290 = CARTESIAN_POINT ( 'NONE',  ( 0.000000000000000000, 0.000000000000000000, 3.200000000000008171 ) ) ;
#291 = DIRECTION ( 'NONE',  ( 1.000000000000000000, 0.000000000000000000, 0.000000000000000000 ) ) ;
#292 = CARTESIAN_POINT ( 'NONE',  ( 0.000000000000000000, 0.000000000000000000, 203.0000000000000000 ) ) ;
#293 = EDGE_CURVE ( 'NONE', #260, #77, #35, .T. ) ;
#294 = AXIS2_PLACEMENT_3D ( 'NONE', #249, #109, #16 ) ;
#295 = DIRECTION ( 'NONE',  ( -0.000000000000000000, -0.000000000000000000, -1.000000000000000000 ) ) ;
#296 = DIRECTION ( 'NONE',  ( 1.224646799147353207E-16, 1.000000000000000000, -0.000000000000000000 ) ) ;
#297 = AXIS2_PLACEMENT_3D ( 'NONE', #170, #83, #274 ) ;
#298 = PERSON_AND_ORGANIZATION ( #269, #33 ) ;
#299 = APPROVAL_STATUS ( 'not_yet_approved' ) ;
#300 =( NAMED_UNIT ( * ) SI_UNIT ( $, .STERADIAN. ) SOLID_ANGLE_UNIT ( ) );
#301 = DIRECTION ( 'NONE',  ( -0.000000000000000000, -0.000000000000000000, -1.000000000000000000 ) ) ;
#302 = EDGE_CURVE ( 'NONE', #3, #239, #219, .T. ) ;
#303 = APPROVAL_STATUS ( 'not_yet_approved' ) ;
#304 = DIRECTION ( 'NONE',  ( -0.000000000000000000, -0.000000000000000000, -1.000000000000000000 ) ) ;
#305 = ORIENTED_EDGE ( 'NONE', *, *, #307, .T. ) ;
#306 = ORIENTED_EDGE ( 'NONE', *, *, #174, .T. ) ;
#307 = EDGE_CURVE ( 'NONE', #182, #141, #235, .T. ) ;
ENDSEC;
END-ISO-10303-21;
