ISO-10303-21;
HEADER;
FILE_DESCRIPTION (( 'STEP AP203' ),
    '1' );
FILE_NAME ('a628.STEP',
    '2022-07-07T09:45:22',
    ( '' ),
    ( '' ),
    'SwSTEP 2.0',
    'SolidWorks 2019',
    '' );
FILE_SCHEMA (( 'CONFIG_CONTROL_DESIGN' ));
ENDSEC;

DATA;
#1 = DIRECTION ( 'NONE',  ( 1.000000000000000000, 0.000000000000000000, 0.000000000000000000 ) ) ;
#2 = ADVANCED_FACE ( 'NONE', ( #267 ), #190, .T. ) ;
#3 = CIRCLE ( 'NONE', #158, 6.299999999999998934 ) ;
#4 = PRODUCT_RELATED_PRODUCT_CATEGORY ( 'detail', '', ( #107 ) ) ;
#5 = PERSON_AND_ORGANIZATION ( #208, #210 ) ;
#6 = CC_DESIGN_DATE_AND_TIME_ASSIGNMENT ( #58, #97, ( #117 ) ) ;
#7 = ORIENTED_EDGE ( 'NONE', *, *, #247, .T. ) ;
#8 = EDGE_LOOP ( 'NONE', ( #96, #187 ) ) ;
#9 = CC_DESIGN_SECURITY_CLASSIFICATION ( #117, ( #236 ) ) ;
#10 = APPROVAL_STATUS ( 'not_yet_approved' ) ;
#11 = VERTEX_POINT ( 'NONE', #103 ) ;
#12 = ORIENTED_EDGE ( 'NONE', *, *, #41, .F. ) ;
#13 = CARTESIAN_POINT ( 'NONE',  ( 0.000000000000000000, 0.000000000000000000, 7.199999999999998401 ) ) ;
#14 = EDGE_CURVE ( 'NONE', #215, #57, #296, .T. ) ;
#15 = VECTOR ( 'NONE', #303, 1000.000000000000000 ) ;
#16 = DIRECTION ( 'NONE',  ( 1.000000000000000000, 0.000000000000000000, 0.000000000000000000 ) ) ;
#17 =( NAMED_UNIT ( * ) SI_UNIT ( $, .STERADIAN. ) SOLID_ANGLE_UNIT ( ) );
#18 = FACE_OUTER_BOUND ( 'NONE', #173, .T. ) ;
#19 = AXIS2_PLACEMENT_3D ( 'NONE', #59, #30, #225 ) ;
#20 = DIRECTION ( 'NONE',  ( 0.000000000000000000, 0.000000000000000000, 1.000000000000000000 ) ) ;
#21 = AXIS2_PLACEMENT_3D ( 'NONE', #45, #61, #200 ) ;
#22 = EDGE_CURVE ( 'NONE', #215, #242, #218, .T. ) ;
#23 = LINE ( 'NONE', #229, #15 ) ;
#24 = APPLICATION_CONTEXT ( 'configuration controlled 3d designs of mechanical parts and assemblies' ) ;
#25 = TOROIDAL_SURFACE ( 'NONE', #145, 6.299999999999998934, 0.2000000000000000111 ) ;
#26 = DATE_TIME_ROLE ( 'creation_date' ) ;
#27 = AXIS2_PLACEMENT_3D ( 'NONE', #181, #40, #230 ) ;
#28 = APPROVAL ( #10, 'NEURÈENÝ' ) ;
#29 = SECURITY_CLASSIFICATION_LEVEL ( 'unclassified' ) ;
#30 = DIRECTION ( 'NONE',  ( 0.000000000000000000, -1.000000000000000000, 0.000000000000000000 ) ) ;
#31 = EDGE_LOOP ( 'NONE', ( #148, #7 ) ) ;
#32 = ORIENTED_EDGE ( 'NONE', *, *, #287, .F. ) ;
#33 = EDGE_CURVE ( 'NONE', #170, #289, #304, .T. ) ;
#34 = COORDINATED_UNIVERSAL_TIME_OFFSET ( 1, 0, .AHEAD. ) ;
#35 = PLANE ( 'NONE',  #73 ) ;
#36 = VECTOR ( 'NONE', #274, 1000.000000000000000 ) ;
#37 = ORIENTED_EDGE ( 'NONE', *, *, #119, .F. ) ;
#38 = APPLICATION_PROTOCOL_DEFINITION ( 'international standard', 'config_control_design', 1994, #24 ) ;
#39 = DIRECTION ( 'NONE',  ( 0.000000000000000000, 0.000000000000000000, 1.000000000000000000 ) ) ;
#40 = DIRECTION ( 'NONE',  ( -0.000000000000000000, -0.000000000000000000, -1.000000000000000000 ) ) ;
#41 = EDGE_CURVE ( 'NONE', #289, #170, #81, .T. ) ;
#42 = EDGE_LOOP ( 'NONE', ( #227, #62, #194, #260 ) ) ;
#43 = MECHANICAL_CONTEXT ( 'NONE', #95, 'mechanical' ) ;
#44 = FACE_OUTER_BOUND ( 'NONE', #295, .T. ) ;
#45 = CARTESIAN_POINT ( 'NONE',  ( 0.000000000000000000, 0.000000000000000000, 107.0000000000000142 ) ) ;
#46 = FACE_OUTER_BOUND ( 'NONE', #167, .T. ) ;
#47 = DIRECTION ( 'NONE',  ( -0.000000000000000000, -0.000000000000000000, -1.000000000000000000 ) ) ;
#48 = CIRCLE ( 'NONE', #93, 9.000000000000000000 ) ;
#49 = DIRECTION ( 'NONE',  ( 0.000000000000000000, 0.000000000000000000, 1.000000000000000000 ) ) ;
#50 = VECTOR ( 'NONE', #169, 1000.000000000000000 ) ;
#51 = COORDINATED_UNIVERSAL_TIME_OFFSET ( 1, 0, .AHEAD. ) ;
#52 = LOCAL_TIME ( 11, 45, 22.00000000000000000, #34 ) ;
#53 = VERTEX_POINT ( 'NONE', #128 ) ;
#54 = ORIENTED_EDGE ( 'NONE', *, *, #134, .F. ) ;
#55 = CARTESIAN_POINT ( 'NONE',  ( 6.099999999999999645, 7.470345474798854293E-16, 107.0000000000000142 ) ) ;
#56 = CIRCLE ( 'NONE', #137, 9.000000000000000000 ) ;
#57 = VERTEX_POINT ( 'NONE', #101 ) ;
#58 = DATE_AND_TIME ( #217, #52 ) ;
#59 = CARTESIAN_POINT ( 'NONE',  ( 6.299999999999998934, 0.000000000000000000, 7.199999999999998401 ) ) ;
#60 = AXIS2_PLACEMENT_3D ( 'NONE', #235, #49, #139 ) ;
#61 = DIRECTION ( 'NONE',  ( 0.000000000000000000, 0.000000000000000000, 1.000000000000000000 ) ) ;
#62 = ORIENTED_EDGE ( 'NONE', *, *, #72, .T. ) ;
#63 = CLOSED_SHELL ( 'NONE', ( #186, #228, #185, #2, #301, #177, #252, #64, #241 ) ) ;
#64 = ADVANCED_FACE ( 'NONE', ( #292 ), #35, .T. ) ;
#65 = DIRECTION ( 'NONE',  ( -1.000000000000000000, 1.224646799147353454E-16, 0.000000000000000000 ) ) ;
#66 = APPLICATION_PROTOCOL_DEFINITION ( 'international standard', 'config_control_design', 1994, #95 ) ;
#67 = CARTESIAN_POINT ( 'NONE',  ( 0.000000000000000000, 0.000000000000000000, 7.199999999999998401 ) ) ;
#68 =( GEOMETRIC_REPRESENTATION_CONTEXT ( 3 ) GLOBAL_UNCERTAINTY_ASSIGNED_CONTEXT ( ( #220 ) ) GLOBAL_UNIT_ASSIGNED_CONTEXT ( ( #226, #305, #17 ) ) REPRESENTATION_CONTEXT ( 'NONE', 'WORKASPACE' ) );
#69 = PLANE ( 'NONE',  #222 ) ;
#70 = CARTESIAN_POINT ( 'NONE',  ( 6.099999999999999645, 7.470345474798854293E-16, 7.199999999999998401 ) ) ;
#71 = DIRECTION ( 'NONE',  ( -1.000000000000000000, 0.000000000000000000, 0.000000000000000000 ) ) ;
#72 = EDGE_CURVE ( 'NONE', #298, #170, #223, .T. ) ;
#73 = AXIS2_PLACEMENT_3D ( 'NONE', #98, #39, #154 ) ;
#74 = CIRCLE ( 'NONE', #27, 6.299999999999998934 ) ;
#75 = APPROVAL_STATUS ( 'not_yet_approved' ) ;
#76 = ORIENTED_EDGE ( 'NONE', *, *, #108, .F. ) ;
#77 = APPROVAL_PERSON_ORGANIZATION ( #166, #193, #291 ) ;
#78 = ORIENTED_EDGE ( 'NONE', *, *, #41, .T. ) ;
#79 = ORIENTED_EDGE ( 'NONE', *, *, #284, .T. ) ;
#80 = DIRECTION ( 'NONE',  ( -0.000000000000000000, -0.000000000000000000, -1.000000000000000000 ) ) ;
#81 = CIRCLE ( 'NONE', #204, 6.099999999999999645 ) ;
#82 = APPROVAL_ROLE ( '' ) ;
#83 = EDGE_LOOP ( 'NONE', ( #221, #150 ) ) ;
#84 = DIRECTION ( 'NONE',  ( 0.000000000000000000, 0.000000000000000000, 1.000000000000000000 ) ) ;
#85 = EDGE_CURVE ( 'NONE', #170, #238, #286, .T. ) ;
#86 = DIRECTION ( 'NONE',  ( -1.000000000000000000, 0.000000000000000000, 0.000000000000000000 ) ) ;
#87 = CARTESIAN_POINT ( 'NONE',  ( 0.000000000000000000, 0.000000000000000000, 7.000000000000000000 ) ) ;
#88 = DIRECTION ( 'NONE',  ( 1.000000000000000000, 0.000000000000000000, 0.000000000000000000 ) ) ;
#89 = PLANE ( 'NONE',  #94 ) ;
#90 = CC_DESIGN_PERSON_AND_ORGANIZATION_ASSIGNMENT ( #118, #146, ( #236 ) ) ;
#91 = DIRECTION ( 'NONE',  ( 0.000000000000000000, 0.000000000000000000, 1.000000000000000000 ) ) ;
#92 = FACE_OUTER_BOUND ( 'NONE', #42, .T. ) ;
#93 = AXIS2_PLACEMENT_3D ( 'NONE', #106, #182, #16 ) ;
#94 = AXIS2_PLACEMENT_3D ( 'NONE', #180, #112, #277 ) ;
#95 = APPLICATION_CONTEXT ( 'configuration controlled 3d designs of mechanical parts and assemblies' ) ;
#96 = ORIENTED_EDGE ( 'NONE', *, *, #259, .T. ) ;
#97 = DATE_TIME_ROLE ( 'classification_date' ) ;
#98 = CARTESIAN_POINT ( 'NONE',  ( 0.000000000000000000, 0.000000000000000000, 107.0000000000000142 ) ) ;
#99 = ORIENTED_EDGE ( 'NONE', *, *, #85, .T. ) ;
#100 = CC_DESIGN_APPROVAL ( #28, ( #236 ) ) ;
#101 = CARTESIAN_POINT ( 'NONE',  ( -9.000000000000000000, 0.000000000000000000, 0.000000000000000000 ) ) ;
#102 = CARTESIAN_POINT ( 'NONE',  ( -9.000000000000000000, 0.000000000000000000, 7.000000000000000000 ) ) ;
#103 = CARTESIAN_POINT ( 'NONE',  ( -6.299999999999998934, 7.715274834628324392E-16, 6.999999999999999112 ) ) ;
#104 = CARTESIAN_POINT ( 'NONE',  ( -6.099999999999999645, 0.000000000000000000, 107.0000000000000142 ) ) ;
#105 = ORIENTED_EDGE ( 'NONE', *, *, #165, .T. ) ;
#106 = CARTESIAN_POINT ( 'NONE',  ( 0.000000000000000000, 0.000000000000000000, 0.000000000000000000 ) ) ;
#107 = PRODUCT ( 'a628', 'a628', '', ( #43 ) ) ;
#108 = EDGE_CURVE ( 'NONE', #242, #215, #56, .T. ) ;
#109 = VECTOR ( 'NONE', #271, 1000.000000000000000 ) ;
#110 = CARTESIAN_POINT ( 'NONE',  ( 0.000000000000000000, 0.000000000000000000, 107.0000000000000142 ) ) ;
#111 = CYLINDRICAL_SURFACE ( 'NONE', #211, 6.099999999999999645 ) ;
#112 = DIRECTION ( 'NONE',  ( 0.000000000000000000, 0.000000000000000000, 1.000000000000000000 ) ) ;
#113 = CC_DESIGN_PERSON_AND_ORGANIZATION_ASSIGNMENT ( #239, #149, ( #236 ) ) ;
#114 = CIRCLE ( 'NONE', #21, 6.099999999999999645 ) ;
#115 = AXIS2_PLACEMENT_3D ( 'NONE', #152, #84, #244 ) ;
#116 = EDGE_LOOP ( 'NONE', ( #268, #219, #262, #191 ) ) ;
#117 = SECURITY_CLASSIFICATION ( '', '', #29 ) ;
#118 = PERSON_AND_ORGANIZATION ( #208, #210 ) ;
#119 = EDGE_CURVE ( 'NONE', #57, #53, #48, .T. ) ;
#120 = PERSON_AND_ORGANIZATION_ROLE ( 'creator' ) ;
#121 = DIRECTION ( 'NONE',  ( 0.000000000000000000, 0.000000000000000000, 1.000000000000000000 ) ) ;
#122 = DIRECTION ( 'NONE',  ( 1.000000000000000000, 0.000000000000000000, 0.000000000000000000 ) ) ;
#123 = CIRCLE ( 'NONE', #269, 0.1999999999999996503 ) ;
#124 = PERSON_AND_ORGANIZATION ( #208, #210 ) ;
#125 = ORIENTED_EDGE ( 'NONE', *, *, #72, .F. ) ;
#126 = CALENDAR_DATE ( 2022, 7, 7 ) ;
#127 = CC_DESIGN_PERSON_AND_ORGANIZATION_ASSIGNMENT ( #164, #224, ( #117 ) ) ;
#128 = CARTESIAN_POINT ( 'NONE',  ( 9.000000000000000000, 1.102182119232617714E-15, 0.000000000000000000 ) ) ;
#129 = DIRECTION ( 'NONE',  ( -0.000000000000000000, -0.000000000000000000, -1.000000000000000000 ) ) ;
#130 = DIRECTION ( 'NONE',  ( -1.000000000000000000, 0.000000000000000000, 0.000000000000000000 ) ) ;
#131 = CARTESIAN_POINT ( 'NONE',  ( 6.099999999999999645, 7.470345474798854293E-16, 107.0000000000000142 ) ) ;
#132 = CYLINDRICAL_SURFACE ( 'NONE', #133, 6.099999999999999645 ) ;
#133 = AXIS2_PLACEMENT_3D ( 'NONE', #110, #129, #86 ) ;
#134 = EDGE_CURVE ( 'NONE', #289, #11, #123, .T. ) ;
#135 = PERSON_AND_ORGANIZATION_ROLE ( 'design_owner' ) ;
#136 = FACE_OUTER_BOUND ( 'NONE', #198, .T. ) ;
#137 = AXIS2_PLACEMENT_3D ( 'NONE', #275, #20, #159 ) ;
#138 = DIRECTION ( 'NONE',  ( 0.000000000000000000, 0.000000000000000000, 1.000000000000000000 ) ) ;
#139 = DIRECTION ( 'NONE',  ( 1.000000000000000000, 0.000000000000000000, 0.000000000000000000 ) ) ;
#140 = ADVANCED_BREP_SHAPE_REPRESENTATION ( 'a628', ( #288, #234 ), #68 ) ;
#141 = PRODUCT_DEFINITION ( 'NEZNÁMÝ', '', #236, #307 ) ;
#142 = CC_DESIGN_APPROVAL ( #163, ( #117 ) ) ;
#143 = APPROVAL_DATE_TIME ( #216, #193 ) ;
#144 = ORIENTED_EDGE ( 'NONE', *, *, #33, .F. ) ;
#145 = AXIS2_PLACEMENT_3D ( 'NONE', #306, #91, #1 ) ;
#146 = PERSON_AND_ORGANIZATION_ROLE ( 'design_supplier' ) ;
#147 = ORIENTED_EDGE ( 'NONE', *, *, #259, .F. ) ;
#148 = ORIENTED_EDGE ( 'NONE', *, *, #287, .T. ) ;
#149 = PERSON_AND_ORGANIZATION_ROLE ( 'creator' ) ;
#150 = ORIENTED_EDGE ( 'NONE', *, *, #108, .T. ) ;
#151 = PERSON_AND_ORGANIZATION ( #208, #210 ) ;
#152 = CARTESIAN_POINT ( 'NONE',  ( 0.000000000000000000, 0.000000000000000000, 7.000000000000000000 ) ) ;
#153 = APPROVAL_DATE_TIME ( #270, #163 ) ;
#154 = DIRECTION ( 'NONE',  ( 1.000000000000000000, 0.000000000000000000, -0.000000000000000000 ) ) ;
#155 = ORIENTED_EDGE ( 'NONE', *, *, #209, .F. ) ;
#156 = CC_DESIGN_PERSON_AND_ORGANIZATION_ASSIGNMENT ( #157, #135, ( #107 ) ) ;
#157 = PERSON_AND_ORGANIZATION ( #208, #210 ) ;
#158 = AXIS2_PLACEMENT_3D ( 'NONE', #87, #233, #183 ) ;
#159 = DIRECTION ( 'NONE',  ( 1.000000000000000000, 0.000000000000000000, 0.000000000000000000 ) ) ;
#160 = CARTESIAN_POINT ( 'NONE',  ( 0.000000000000000000, 0.000000000000000000, 7.000000000000000000 ) ) ;
#161 = CARTESIAN_POINT ( 'NONE',  ( 6.299999999999998934, 0.000000000000000000, 6.999999999999999112 ) ) ;
#162 = CARTESIAN_POINT ( 'NONE',  ( 0.000000000000000000, 0.000000000000000000, 107.0000000000000142 ) ) ;
#163 = APPROVAL ( #197, 'NEURÈENÝ' ) ;
#164 = PERSON_AND_ORGANIZATION ( #208, #210 ) ;
#165 = EDGE_CURVE ( 'NONE', #242, #53, #23, .T. ) ;
#166 = PERSON_AND_ORGANIZATION ( #208, #210 ) ;
#167 = EDGE_LOOP ( 'NONE', ( #37, #265 ) ) ;
#168 = COORDINATED_UNIVERSAL_TIME_OFFSET ( 1, 0, .AHEAD. ) ;
#169 = DIRECTION ( 'NONE',  ( -0.000000000000000000, -0.000000000000000000, -1.000000000000000000 ) ) ;
#170 = VERTEX_POINT ( 'NONE', #70 ) ;
#171 = ORIENTED_EDGE ( 'NONE', *, *, #273, .T. ) ;
#172 = COORDINATED_UNIVERSAL_TIME_OFFSET ( 1, 0, .AHEAD. ) ;
#173 = EDGE_LOOP ( 'NONE', ( #12, #243, #147, #245 ) ) ;
#174 = AXIS2_PLACEMENT_3D ( 'NONE', #299, #175, #246 ) ;
#175 = DIRECTION ( 'NONE',  ( 0.000000000000000000, 0.000000000000000000, 1.000000000000000000 ) ) ;
#176 = CARTESIAN_POINT ( 'NONE',  ( 0.000000000000000000, 0.000000000000000000, 7.000000000000000000 ) ) ;
#177 = ADVANCED_FACE ( 'NONE', ( #46 ), #89, .F. ) ;
#178 = FACE_BOUND ( 'NONE', #8, .T. ) ;
#179 = CYLINDRICAL_SURFACE ( 'NONE', #256, 9.000000000000000000 ) ;
#180 = CARTESIAN_POINT ( 'NONE',  ( 0.000000000000000000, 0.000000000000000000, 0.000000000000000000 ) ) ;
#181 = CARTESIAN_POINT ( 'NONE',  ( 0.000000000000000000, 0.000000000000000000, 7.000000000000000000 ) ) ;
#182 = DIRECTION ( 'NONE',  ( 0.000000000000000000, 0.000000000000000000, 1.000000000000000000 ) ) ;
#183 = DIRECTION ( 'NONE',  ( 1.000000000000000000, 0.000000000000000000, 0.000000000000000000 ) ) ;
#184 = APPROVAL_PERSON_ORGANIZATION ( #151, #28, #82 ) ;
#185 = ADVANCED_FACE ( 'NONE', ( #136 ), #179, .T. ) ;
#186 = ADVANCED_FACE ( 'NONE', ( #18 ), #293, .F. ) ;
#187 = ORIENTED_EDGE ( 'NONE', *, *, #209, .T. ) ;
#188 = CALENDAR_DATE ( 2022, 7, 7 ) ;
#189 = APPROVAL_ROLE ( '' ) ;
#190 = CYLINDRICAL_SURFACE ( 'NONE', #212, 9.000000000000000000 ) ;
#191 = ORIENTED_EDGE ( 'NONE', *, *, #119, .T. ) ;
#192 = LOCAL_TIME ( 11, 45, 22.00000000000000000, #51 ) ;
#193 = APPROVAL ( #75, 'NEURÈENÝ' ) ;
#194 = ORIENTED_EDGE ( 'NONE', *, *, #33, .T. ) ;
#195 = COORDINATED_UNIVERSAL_TIME_OFFSET ( 1, 0, .AHEAD. ) ;
#196 = ORIENTED_EDGE ( 'NONE', *, *, #14, .F. ) ;
#197 = APPROVAL_STATUS ( 'not_yet_approved' ) ;
#198 = EDGE_LOOP ( 'NONE', ( #76, #105, #79, #196 ) ) ;
#199 = CIRCLE ( 'NONE', #60, 6.099999999999999645 ) ;
#200 = DIRECTION ( 'NONE',  ( 1.000000000000000000, 0.000000000000000000, 0.000000000000000000 ) ) ;
#201 = VERTEX_POINT ( 'NONE', #231 ) ;
#202 = CARTESIAN_POINT ( 'NONE',  ( 0.000000000000000000, 0.000000000000000000, 0.000000000000000000 ) ) ;
#203 = DIRECTION ( 'NONE',  ( 1.224646799147353207E-16, 1.000000000000000000, -0.000000000000000000 ) ) ;
#204 = AXIS2_PLACEMENT_3D ( 'NONE', #264, #121, #240 ) ;
#205 = DIRECTION ( 'NONE',  ( 1.000000000000000000, 0.000000000000000000, -0.000000000000000000 ) ) ;
#206 = FACE_OUTER_BOUND ( 'NONE', #248, .T. ) ;
#207 = DIRECTION ( 'NONE',  ( -0.000000000000000000, -0.000000000000000000, -1.000000000000000000 ) ) ;
#208 = PERSON ( 'NEURÈENÝ', 'NEURÈENÝ', 'NEURÈENÝ', ('NEURÈENÝ'), ('NEURÈENÝ'), ('NEURÈENÝ') ) ;
#209 = EDGE_CURVE ( 'NONE', #11, #238, #3, .T. ) ;
#210 = ORGANIZATION ( 'NEURÈENÝ', 'NEURÈENÝ', '' ) ;
#211 = AXIS2_PLACEMENT_3D ( 'NONE', #162, #47, #71 ) ;
#212 = AXIS2_PLACEMENT_3D ( 'NONE', #176, #80, #130 ) ;
#213 = CC_DESIGN_PERSON_AND_ORGANIZATION_ASSIGNMENT ( #5, #120, ( #141 ) ) ;
#214 = LOCAL_TIME ( 11, 45, 22.00000000000000000, #168 ) ;
#215 = VERTEX_POINT ( 'NONE', #281 ) ;
#216 = DATE_AND_TIME ( #294, #272 ) ;
#217 = CALENDAR_DATE ( 2022, 7, 7 ) ;
#218 = CIRCLE ( 'NONE', #115, 9.000000000000000000 ) ;
#219 = ORIENTED_EDGE ( 'NONE', *, *, #22, .F. ) ;
#220 = UNCERTAINTY_MEASURE_WITH_UNIT (LENGTH_MEASURE( 1.000000000000000082E-05 ), #226, 'distance_accuracy_value', 'NONE');
#221 = ORIENTED_EDGE ( 'NONE', *, *, #22, .T. ) ;
#222 = AXIS2_PLACEMENT_3D ( 'NONE', #160, #253, #205 ) ;
#223 = LINE ( 'NONE', #55, #109 ) ;
#224 = PERSON_AND_ORGANIZATION_ROLE ( 'classification_officer' ) ;
#225 = DIRECTION ( 'NONE',  ( 0.000000000000000000, 0.000000000000000000, -1.000000000000000000 ) ) ;
#226 =( LENGTH_UNIT ( ) NAMED_UNIT ( * ) SI_UNIT ( .MILLI., .METRE. ) );
#227 = ORIENTED_EDGE ( 'NONE', *, *, #247, .F. ) ;
#228 = ADVANCED_FACE ( 'NONE', ( #92 ), #111, .T. ) ;
#229 = CARTESIAN_POINT ( 'NONE',  ( 9.000000000000000000, 1.102182119232617714E-15, 7.000000000000000000 ) ) ;
#230 = DIRECTION ( 'NONE',  ( 1.000000000000000000, 0.000000000000000000, 0.000000000000000000 ) ) ;
#231 = CARTESIAN_POINT ( 'NONE',  ( -6.099999999999999645, 0.000000000000000000, 107.0000000000000142 ) ) ;
#232 = LINE ( 'NONE', #104, #36 ) ;
#233 = DIRECTION ( 'NONE',  ( -0.000000000000000000, -0.000000000000000000, -1.000000000000000000 ) ) ;
#234 = AXIS2_PLACEMENT_3D ( 'NONE', #202, #302, #88 ) ;
#235 = CARTESIAN_POINT ( 'NONE',  ( 0.000000000000000000, 0.000000000000000000, 107.0000000000000142 ) ) ;
#236 = PRODUCT_DEFINITION_FORMATION_WITH_SPECIFIED_SOURCE ( 'LIBOVOLNÝ', '', #107, .NOT_KNOWN. ) ;
#237 = CALENDAR_DATE ( 2022, 7, 7 ) ;
#238 = VERTEX_POINT ( 'NONE', #161 ) ;
#239 = PERSON_AND_ORGANIZATION ( #208, #210 ) ;
#240 = DIRECTION ( 'NONE',  ( 1.000000000000000000, 0.000000000000000000, 0.000000000000000000 ) ) ;
#241 = ADVANCED_FACE ( 'NONE', ( #206 ), #25, .F. ) ;
#242 = VERTEX_POINT ( 'NONE', #254 ) ;
#243 = ORIENTED_EDGE ( 'NONE', *, *, #134, .T. ) ;
#244 = DIRECTION ( 'NONE',  ( 1.000000000000000000, 0.000000000000000000, 0.000000000000000000 ) ) ;
#245 = ORIENTED_EDGE ( 'NONE', *, *, #85, .F. ) ;
#246 = DIRECTION ( 'NONE',  ( 1.000000000000000000, 0.000000000000000000, 0.000000000000000000 ) ) ;
#247 = EDGE_CURVE ( 'NONE', #298, #201, #199, .T. ) ;
#248 = EDGE_LOOP ( 'NONE', ( #54, #144, #99, #155 ) ) ;
#249 = CARTESIAN_POINT ( 'NONE',  ( 0.000000000000000000, 0.000000000000000000, 7.000000000000000000 ) ) ;
#250 = CC_DESIGN_APPROVAL ( #193, ( #141 ) ) ;
#251 = DIRECTION ( 'NONE',  ( -1.000000000000000000, 0.000000000000000000, 0.000000000000000000 ) ) ;
#252 = ADVANCED_FACE ( 'NONE', ( #44 ), #132, .T. ) ;
#253 = DIRECTION ( 'NONE',  ( 0.000000000000000000, 0.000000000000000000, 1.000000000000000000 ) ) ;
#254 = CARTESIAN_POINT ( 'NONE',  ( 9.000000000000000000, 1.102182119232617714E-15, 7.000000000000000000 ) ) ;
#255 = CIRCLE ( 'NONE', #174, 9.000000000000000000 ) ;
#256 = AXIS2_PLACEMENT_3D ( 'NONE', #249, #207, #251 ) ;
#257 = CC_DESIGN_DATE_AND_TIME_ASSIGNMENT ( #297, #26, ( #141 ) ) ;
#258 = DATE_AND_TIME ( #126, #214 ) ;
#259 = EDGE_CURVE ( 'NONE', #238, #11, #74, .T. ) ;
#260 = ORIENTED_EDGE ( 'NONE', *, *, #273, .F. ) ;
#261 = AXIS2_PLACEMENT_3D ( 'NONE', #67, #138, #278 ) ;
#262 = ORIENTED_EDGE ( 'NONE', *, *, #14, .T. ) ;
#263 = APPROVAL_DATE_TIME ( #258, #28 ) ;
#264 = CARTESIAN_POINT ( 'NONE',  ( 0.000000000000000000, 0.000000000000000000, 7.199999999999998401 ) ) ;
#265 = ORIENTED_EDGE ( 'NONE', *, *, #284, .F. ) ;
#266 = AXIS2_PLACEMENT_3D ( 'NONE', #13, #300, #122 ) ;
#267 = FACE_OUTER_BOUND ( 'NONE', #116, .T. ) ;
#268 = ORIENTED_EDGE ( 'NONE', *, *, #165, .F. ) ;
#269 = AXIS2_PLACEMENT_3D ( 'NONE', #283, #203, #65 ) ;
#270 = DATE_AND_TIME ( #188, #279 ) ;
#271 = DIRECTION ( 'NONE',  ( -0.000000000000000000, -0.000000000000000000, -1.000000000000000000 ) ) ;
#272 = LOCAL_TIME ( 11, 45, 22.00000000000000000, #172 ) ;
#273 = EDGE_CURVE ( 'NONE', #201, #289, #232, .T. ) ;
#274 = DIRECTION ( 'NONE',  ( -0.000000000000000000, -0.000000000000000000, -1.000000000000000000 ) ) ;
#275 = CARTESIAN_POINT ( 'NONE',  ( 0.000000000000000000, 0.000000000000000000, 7.000000000000000000 ) ) ;
#276 = FACE_OUTER_BOUND ( 'NONE', #83, .T. ) ;
#277 = DIRECTION ( 'NONE',  ( 1.000000000000000000, 0.000000000000000000, -0.000000000000000000 ) ) ;
#278 = DIRECTION ( 'NONE',  ( 1.000000000000000000, 0.000000000000000000, 0.000000000000000000 ) ) ;
#279 = LOCAL_TIME ( 11, 45, 22.00000000000000000, #195 ) ;
#280 = CARTESIAN_POINT ( 'NONE',  ( -6.099999999999999645, 0.000000000000000000, 7.199999999999998401 ) ) ;
#281 = CARTESIAN_POINT ( 'NONE',  ( -9.000000000000000000, 0.000000000000000000, 7.000000000000000000 ) ) ;
#282 = PRODUCT_DEFINITION_SHAPE ( 'NONE', 'NONE',  #141 ) ;
#283 = CARTESIAN_POINT ( 'NONE',  ( -6.299999999999998934, 7.715274834628324392E-16, 7.199999999999998401 ) ) ;
#284 = EDGE_CURVE ( 'NONE', #53, #57, #255, .T. ) ;
#285 = APPROVAL_PERSON_ORGANIZATION ( #124, #163, #189 ) ;
#286 = CIRCLE ( 'NONE', #19, 0.1999999999999996503 ) ;
#287 = EDGE_CURVE ( 'NONE', #201, #298, #114, .T. ) ;
#288 = MANIFOLD_SOLID_BREP ( 'Zaoblit1', #63 ) ;
#289 = VERTEX_POINT ( 'NONE', #280 ) ;
#290 = SHAPE_DEFINITION_REPRESENTATION ( #282, #140 ) ;
#291 = APPROVAL_ROLE ( '' ) ;
#292 = FACE_OUTER_BOUND ( 'NONE', #31, .T. ) ;
#293 = TOROIDAL_SURFACE ( 'NONE', #261, 6.299999999999998934, 0.2000000000000000111 ) ;
#294 = CALENDAR_DATE ( 2022, 7, 7 ) ;
#295 = EDGE_LOOP ( 'NONE', ( #125, #32, #171, #78 ) ) ;
#296 = LINE ( 'NONE', #102, #50 ) ;
#297 = DATE_AND_TIME ( #237, #192 ) ;
#298 = VERTEX_POINT ( 'NONE', #131 ) ;
#299 = CARTESIAN_POINT ( 'NONE',  ( 0.000000000000000000, 0.000000000000000000, 0.000000000000000000 ) ) ;
#300 = DIRECTION ( 'NONE',  ( 0.000000000000000000, 0.000000000000000000, 1.000000000000000000 ) ) ;
#301 = ADVANCED_FACE ( 'NONE', ( #178, #276 ), #69, .T. ) ;
#302 = DIRECTION ( 'NONE',  ( 0.000000000000000000, 0.000000000000000000, 1.000000000000000000 ) ) ;
#303 = DIRECTION ( 'NONE',  ( -0.000000000000000000, -0.000000000000000000, -1.000000000000000000 ) ) ;
#304 = CIRCLE ( 'NONE', #266, 6.099999999999999645 ) ;
#305 =( NAMED_UNIT ( * ) PLANE_ANGLE_UNIT ( ) SI_UNIT ( $, .RADIAN. ) );
#306 = CARTESIAN_POINT ( 'NONE',  ( 0.000000000000000000, 0.000000000000000000, 7.199999999999998401 ) ) ;
#307 = DESIGN_CONTEXT ( 'detailed design', #24, 'design' ) ;
ENDSEC;
END-ISO-10303-21;
