ISO-10303-21;
HEADER;
FILE_DESCRIPTION (( 'STEP AP203' ),
    '1' );
FILE_NAME ('35b0.STEP',
    '2022-07-07T09:48:35',
    ( '' ),
    ( '' ),
    'SwSTEP 2.0',
    'SolidWorks 2019',
    '' );
FILE_SCHEMA (( 'CONFIG_CONTROL_DESIGN' ));
ENDSEC;

DATA;
#1 = CIRCLE ( 'NONE', #187, 5.500000000000000000 ) ;
#2 = ADVANCED_FACE ( 'NONE', ( #32 ), #295, .T. ) ;
#3 = PRODUCT ( '35b0', '35b0', '', ( #261 ) ) ;
#4 = AXIS2_PLACEMENT_3D ( 'NONE', #239, #19, #141 ) ;
#5 = CARTESIAN_POINT ( 'NONE',  ( 0.000000000000000000, 0.000000000000000000, 5.000000000000000000 ) ) ;
#6 = ORIENTED_EDGE ( 'NONE', *, *, #140, .F. ) ;
#7 = ORIENTED_EDGE ( 'NONE', *, *, #71, .T. ) ;
#8 = ORIENTED_EDGE ( 'NONE', *, *, #200, .T. ) ;
#9 = ORIENTED_EDGE ( 'NONE', *, *, #140, .T. ) ;
#10 = VERTEX_POINT ( 'NONE', #298 ) ;
#11 = CARTESIAN_POINT ( 'NONE',  ( 0.000000000000000000, 0.000000000000000000, 0.000000000000000000 ) ) ;
#12 = DIRECTION ( 'NONE',  ( 1.000000000000000000, 0.000000000000000000, 0.000000000000000000 ) ) ;
#13 = CARTESIAN_POINT ( 'NONE',  ( 0.000000000000000000, 0.000000000000000000, 5.000000000000000000 ) ) ;
#14 = DIRECTION ( 'NONE',  ( 1.000000000000000000, 0.000000000000000000, -0.000000000000000000 ) ) ;
#15 = DIRECTION ( 'NONE',  ( -0.000000000000000000, -0.000000000000000000, -1.000000000000000000 ) ) ;
#16 = AXIS2_PLACEMENT_3D ( 'NONE', #11, #132, #80 ) ;
#17 = CALENDAR_DATE ( 2022, 7, 7 ) ;
#18 = PERSON_AND_ORGANIZATION_ROLE ( 'design_owner' ) ;
#19 = DIRECTION ( 'NONE',  ( 0.000000000000000000, 0.000000000000000000, 1.000000000000000000 ) ) ;
#20 = DIRECTION ( 'NONE',  ( 1.000000000000000000, 0.000000000000000000, 0.000000000000000000 ) ) ;
#21 = EDGE_CURVE ( 'NONE', #103, #75, #301, .T. ) ;
#22 = APPROVAL_PERSON_ORGANIZATION ( #169, #74, #279 ) ;
#23 = COORDINATED_UNIVERSAL_TIME_OFFSET ( 1, 0, .AHEAD. ) ;
#24 = APPLICATION_CONTEXT ( 'configuration controlled 3d designs of mechanical parts and assemblies' ) ;
#25 = CC_DESIGN_PERSON_AND_ORGANIZATION_ASSIGNMENT ( #144, #173, ( #176 ) ) ;
#26 = AXIS2_PLACEMENT_3D ( 'NONE', #267, #183, #54 ) ;
#27 = FACE_BOUND ( 'NONE', #160, .T. ) ;
#28 = CC_DESIGN_PERSON_AND_ORGANIZATION_ASSIGNMENT ( #244, #64, ( #299 ) ) ;
#29 = VERTEX_POINT ( 'NONE', #291 ) ;
#30 = CARTESIAN_POINT ( 'NONE',  ( 5.699999999999999289, 0.000000000000000000, 4.999999999999991118 ) ) ;
#31 = ORIENTED_EDGE ( 'NONE', *, *, #300, .T. ) ;
#32 = FACE_OUTER_BOUND ( 'NONE', #83, .T. ) ;
#33 = APPROVAL_ROLE ( '' ) ;
#34 = CARTESIAN_POINT ( 'NONE',  ( 5.500000000000000000, 6.735557395310442023E-16, 405.0000000000000000 ) ) ;
#35 = EDGE_LOOP ( 'NONE', ( #31, #250 ) ) ;
#36 =( NAMED_UNIT ( * ) SI_UNIT ( $, .STERADIAN. ) SOLID_ANGLE_UNIT ( ) );
#37 = DIRECTION ( 'NONE',  ( 1.000000000000000000, 0.000000000000000000, -0.000000000000000000 ) ) ;
#38 =( LENGTH_UNIT ( ) NAMED_UNIT ( * ) SI_UNIT ( .MILLI., .METRE. ) );
#39 = FACE_OUTER_BOUND ( 'NONE', #268, .T. ) ;
#40 = DIRECTION ( 'NONE',  ( 1.000000000000000000, 0.000000000000000000, 0.000000000000000000 ) ) ;
#41 = DIRECTION ( 'NONE',  ( 0.000000000000000000, 0.000000000000000000, 1.000000000000000000 ) ) ;
#42 = APPROVAL_DATE_TIME ( #62, #82 ) ;
#43 = AXIS2_PLACEMENT_3D ( 'NONE', #57, #56, #188 ) ;
#44 = PRODUCT_DEFINITION ( 'NEZNÁMÝ', '', #299, #73 ) ;
#45 = AXIS2_PLACEMENT_3D ( 'NONE', #163, #137, #14 ) ;
#46 = AXIS2_PLACEMENT_3D ( 'NONE', #146, #119, #142 ) ;
#47 = ADVANCED_FACE ( 'NONE', ( #27, #159 ), #203, .T. ) ;
#48 = UNCERTAINTY_MEASURE_WITH_UNIT (LENGTH_MEASURE( 1.000000000000000082E-05 ), #38, 'distance_accuracy_value', 'NONE');
#49 = DIRECTION ( 'NONE',  ( 0.000000000000000000, 0.000000000000000000, 1.000000000000000000 ) ) ;
#50 = LOCAL_TIME ( 11, 48, 35.00000000000000000, #217 ) ;
#51 = EDGE_CURVE ( 'NONE', #107, #10, #125, .T. ) ;
#52 = CIRCLE ( 'NONE', #151, 5.500000000000000000 ) ;
#53 = ORIENTED_EDGE ( 'NONE', *, *, #153, .F. ) ;
#54 = DIRECTION ( 'NONE',  ( -1.000000000000000000, 1.224646799147353454E-16, 0.000000000000000000 ) ) ;
#55 = ORIENTED_EDGE ( 'NONE', *, *, #99, .F. ) ;
#56 = DIRECTION ( 'NONE',  ( -0.000000000000000000, -0.000000000000000000, -1.000000000000000000 ) ) ;
#57 = CARTESIAN_POINT ( 'NONE',  ( 0.000000000000000000, 0.000000000000000000, 405.0000000000000000 ) ) ;
#58 = ORGANIZATION ( 'NEURÈENÝ', 'NEURÈENÝ', '' ) ;
#59 = LINE ( 'NONE', #241, #288 ) ;
#60 = VERTEX_POINT ( 'NONE', #165 ) ;
#61 = CARTESIAN_POINT ( 'NONE',  ( 0.000000000000000000, 0.000000000000000000, 5.000000000000000000 ) ) ;
#62 = DATE_AND_TIME ( #256, #98 ) ;
#63 = DIRECTION ( 'NONE',  ( 0.000000000000000000, 0.000000000000000000, 1.000000000000000000 ) ) ;
#64 = PERSON_AND_ORGANIZATION_ROLE ( 'design_supplier' ) ;
#65 = CYLINDRICAL_SURFACE ( 'NONE', #245, 8.000000000000000000 ) ;
#66 =( NAMED_UNIT ( * ) PLANE_ANGLE_UNIT ( ) SI_UNIT ( $, .RADIAN. ) );
#67 = CARTESIAN_POINT ( 'NONE',  ( 0.000000000000000000, 0.000000000000000000, 5.199999999999982414 ) ) ;
#68 = PERSON_AND_ORGANIZATION ( #290, #58 ) ;
#69 = EDGE_CURVE ( 'NONE', #60, #292, #174, .T. ) ;
#70 = CC_DESIGN_APPROVAL ( #97, ( #299 ) ) ;
#71 = EDGE_CURVE ( 'NONE', #107, #208, #179, .T. ) ;
#72 = AXIS2_PLACEMENT_3D ( 'NONE', #113, #41, #276 ) ;
#73 = DESIGN_CONTEXT ( 'detailed design', #24, 'design' ) ;
#74 = APPROVAL ( #115, 'NEURÈENÝ' ) ;
#75 = VERTEX_POINT ( 'NONE', #30 ) ;
#76 = DIRECTION ( 'NONE',  ( 1.000000000000000000, 0.000000000000000000, 0.000000000000000000 ) ) ;
#77 = APPROVAL_PERSON_ORGANIZATION ( #147, #97, #136 ) ;
#78 = EDGE_LOOP ( 'NONE', ( #84, #271, #206, #182 ) ) ;
#79 = EDGE_LOOP ( 'NONE', ( #138, #7, #102, #228 ) ) ;
#80 = DIRECTION ( 'NONE',  ( 1.000000000000000000, 0.000000000000000000, 0.000000000000000000 ) ) ;
#81 = CARTESIAN_POINT ( 'NONE',  ( 0.000000000000000000, 0.000000000000000000, 5.000000000000000000 ) ) ;
#82 = APPROVAL ( #212, 'NEURÈENÝ' ) ;
#83 = EDGE_LOOP ( 'NONE', ( #231, #158, #9, #126 ) ) ;
#84 = ORIENTED_EDGE ( 'NONE', *, *, #71, .F. ) ;
#85 = AXIS2_PLACEMENT_3D ( 'NONE', #258, #220, #12 ) ;
#86 = CARTESIAN_POINT ( 'NONE',  ( -8.000000000000000000, 0.000000000000000000, 0.000000000000000000 ) ) ;
#87 = AXIS2_PLACEMENT_3D ( 'NONE', #5, #101, #76 ) ;
#88 = CARTESIAN_POINT ( 'NONE',  ( -5.699999999999999289, 6.980486755139912122E-16, 4.999999999999991118 ) ) ;
#89 = CARTESIAN_POINT ( 'NONE',  ( 0.000000000000000000, 0.000000000000000000, 0.000000000000000000 ) ) ;
#90 = APPLICATION_PROTOCOL_DEFINITION ( 'international standard', 'config_control_design', 1994, #24 ) ;
#91 = CYLINDRICAL_SURFACE ( 'NONE', #254, 5.500000000000000000 ) ;
#92 = LOCAL_TIME ( 11, 48, 35.00000000000000000, #23 ) ;
#93 = AXIS2_PLACEMENT_3D ( 'NONE', #191, #196, #262 ) ;
#94 = DATE_TIME_ROLE ( 'classification_date' ) ;
#95 = CIRCLE ( 'NONE', #131, 5.500000000000000000 ) ;
#96 = AXIS2_PLACEMENT_3D ( 'NONE', #232, #49, #37 ) ;
#97 = APPROVAL ( #240, 'NEURÈENÝ' ) ;
#98 = LOCAL_TIME ( 11, 48, 35.00000000000000000, #275 ) ;
#99 = EDGE_CURVE ( 'NONE', #60, #103, #246, .T. ) ;
#100 = EDGE_LOOP ( 'NONE', ( #8, #207 ) ) ;
#101 = DIRECTION ( 'NONE',  ( 0.000000000000000000, 0.000000000000000000, 1.000000000000000000 ) ) ;
#102 = ORIENTED_EDGE ( 'NONE', *, *, #186, .T. ) ;
#103 = VERTEX_POINT ( 'NONE', #265 ) ;
#104 = ORIENTED_EDGE ( 'NONE', *, *, #153, .T. ) ;
#105 = DIRECTION ( 'NONE',  ( 0.000000000000000000, 0.000000000000000000, 1.000000000000000000 ) ) ;
#106 = EDGE_CURVE ( 'NONE', #185, #208, #154, .T. ) ;
#107 = VERTEX_POINT ( 'NONE', #229 ) ;
#108 = CARTESIAN_POINT ( 'NONE',  ( 0.000000000000000000, 0.000000000000000000, 5.199999999999982414 ) ) ;
#109 = COORDINATED_UNIVERSAL_TIME_OFFSET ( 1, 0, .AHEAD. ) ;
#110 = DIRECTION ( 'NONE',  ( -1.000000000000000000, 0.000000000000000000, 0.000000000000000000 ) ) ;
#111 = COORDINATED_UNIVERSAL_TIME_OFFSET ( 1, 0, .AHEAD. ) ;
#112 = DIRECTION ( 'NONE',  ( 0.000000000000000000, 0.000000000000000000, 1.000000000000000000 ) ) ;
#113 = CARTESIAN_POINT ( 'NONE',  ( 0.000000000000000000, 0.000000000000000000, 5.199999999999982414 ) ) ;
#114 = ADVANCED_FACE ( 'NONE', ( #251 ), #135, .T. ) ;
#115 = APPROVAL_STATUS ( 'not_yet_approved' ) ;
#116 = PERSON_AND_ORGANIZATION_ROLE ( 'creator' ) ;
#117 = DIRECTION ( 'NONE',  ( -1.000000000000000000, 0.000000000000000000, 0.000000000000000000 ) ) ;
#118 = DATE_AND_TIME ( #17, #92 ) ;
#119 = DIRECTION ( 'NONE',  ( -0.000000000000000000, -0.000000000000000000, -1.000000000000000000 ) ) ;
#120 = AXIS2_PLACEMENT_3D ( 'NONE', #81, #193, #278 ) ;
#121 = CC_DESIGN_SECURITY_CLASSIFICATION ( #176, ( #299 ) ) ;
#122 = CLOSED_SHELL ( 'NONE', ( #175, #2, #130, #259, #47, #270, #172, #114, #124 ) ) ;
#123 = CC_DESIGN_PERSON_AND_ORGANIZATION_ASSIGNMENT ( #68, #116, ( #44 ) ) ;
#124 = ADVANCED_FACE ( 'NONE', ( #305 ), #143, .F. ) ;
#125 = CIRCLE ( 'NONE', #87, 8.000000000000000000 ) ;
#126 = ORIENTED_EDGE ( 'NONE', *, *, #166, .F. ) ;
#127 = ORIENTED_EDGE ( 'NONE', *, *, #300, .F. ) ;
#128 = DIRECTION ( 'NONE',  ( 0.000000000000000000, 0.000000000000000000, 1.000000000000000000 ) ) ;
#129 = ORIENTED_EDGE ( 'NONE', *, *, #106, .F. ) ;
#130 = ADVANCED_FACE ( 'NONE', ( #282 ), #236, .T. ) ;
#131 = AXIS2_PLACEMENT_3D ( 'NONE', #192, #277, #40 ) ;
#132 = DIRECTION ( 'NONE',  ( 0.000000000000000000, 0.000000000000000000, 1.000000000000000000 ) ) ;
#133 = ORIENTED_EDGE ( 'NONE', *, *, #224, .F. ) ;
#134 = VECTOR ( 'NONE', #218, 1000.000000000000000 ) ;
#135 = PLANE ( 'NONE',  #96 ) ;
#136 = APPROVAL_ROLE ( '' ) ;
#137 = DIRECTION ( 'NONE',  ( 0.000000000000000000, 0.000000000000000000, 1.000000000000000000 ) ) ;
#138 = ORIENTED_EDGE ( 'NONE', *, *, #51, .F. ) ;
#139 = PERSON_AND_ORGANIZATION ( #290, #58 ) ;
#140 = EDGE_CURVE ( 'NONE', #103, #60, #52, .T. ) ;
#141 = DIRECTION ( 'NONE',  ( 1.000000000000000000, 0.000000000000000000, 0.000000000000000000 ) ) ;
#142 = DIRECTION ( 'NONE',  ( 1.000000000000000000, 0.000000000000000000, 0.000000000000000000 ) ) ;
#143 = TOROIDAL_SURFACE ( 'NONE', #4, 5.699999999999999289, 0.2000000000000000111 ) ;
#144 = PERSON_AND_ORGANIZATION ( #290, #58 ) ;
#145 = CARTESIAN_POINT ( 'NONE',  ( 0.000000000000000000, 0.000000000000000000, 405.0000000000000000 ) ) ;
#146 = CARTESIAN_POINT ( 'NONE',  ( 0.000000000000000000, 0.000000000000000000, 5.000000000000000000 ) ) ;
#147 = PERSON_AND_ORGANIZATION ( #290, #58 ) ;
#148 = CC_DESIGN_PERSON_AND_ORGANIZATION_ASSIGNMENT ( #302, #18, ( #3 ) ) ;
#149 = PRODUCT_DEFINITION_SHAPE ( 'NONE', 'NONE',  #44 ) ;
#150 = PERSON_AND_ORGANIZATION ( #290, #58 ) ;
#151 = AXIS2_PLACEMENT_3D ( 'NONE', #67, #168, #234 ) ;
#152 = AXIS2_PLACEMENT_3D ( 'NONE', #13, #215, #117 ) ;
#153 = EDGE_CURVE ( 'NONE', #75, #292, #197, .T. ) ;
#154 = CIRCLE ( 'NONE', #16, 8.000000000000000000 ) ;
#155 = ORIENTED_EDGE ( 'NONE', *, *, #69, .F. ) ;
#156 = DIRECTION ( 'NONE',  ( -0.000000000000000000, -0.000000000000000000, -1.000000000000000000 ) ) ;
#157 = EDGE_CURVE ( 'NONE', #292, #75, #230, .T. ) ;
#158 = ORIENTED_EDGE ( 'NONE', *, *, #224, .T. ) ;
#159 = FACE_OUTER_BOUND ( 'NONE', #100, .T. ) ;
#160 = EDGE_LOOP ( 'NONE', ( #104, #210 ) ) ;
#161 = CC_DESIGN_APPROVAL ( #82, ( #44 ) ) ;
#162 = DIRECTION ( 'NONE',  ( 1.000000000000000000, 0.000000000000000000, 0.000000000000000000 ) ) ;
#163 = CARTESIAN_POINT ( 'NONE',  ( 0.000000000000000000, 0.000000000000000000, 0.000000000000000000 ) ) ;
#164 = EDGE_LOOP ( 'NONE', ( #133, #127, #205, #247 ) ) ;
#165 = CARTESIAN_POINT ( 'NONE',  ( -5.500000000000000000, 0.000000000000000000, 5.199999999999982414 ) ) ;
#166 = EDGE_CURVE ( 'NONE', #29, #60, #171, .T. ) ;
#167 = CALENDAR_DATE ( 2022, 7, 7 ) ;
#168 = DIRECTION ( 'NONE',  ( 0.000000000000000000, 0.000000000000000000, 1.000000000000000000 ) ) ;
#169 = PERSON_AND_ORGANIZATION ( #290, #58 ) ;
#170 = CARTESIAN_POINT ( 'NONE',  ( 0.000000000000000000, 0.000000000000000000, 5.000000000000000000 ) ) ;
#171 = LINE ( 'NONE', #189, #134 ) ;
#172 = ADVANCED_FACE ( 'NONE', ( #272 ), #91, .T. ) ;
#173 = PERSON_AND_ORGANIZATION_ROLE ( 'classification_officer' ) ;
#174 = CIRCLE ( 'NONE', #26, 0.1999999999999996503 ) ;
#175 = ADVANCED_FACE ( 'NONE', ( #213 ), #177, .F. ) ;
#176 = SECURITY_CLASSIFICATION ( '', '', #216 ) ;
#177 = TOROIDAL_SURFACE ( 'NONE', #72, 5.699999999999999289, 0.2000000000000000111 ) ;
#178 = CARTESIAN_POINT ( 'NONE',  ( 8.000000000000000000, 9.797174393178825657E-16, 5.000000000000000000 ) ) ;
#179 = LINE ( 'NONE', #178, #214 ) ;
#180 = ORIENTED_EDGE ( 'NONE', *, *, #21, .F. ) ;
#181 = DIRECTION ( 'NONE',  ( 0.000000000000000000, 0.000000000000000000, -1.000000000000000000 ) ) ;
#182 = ORIENTED_EDGE ( 'NONE', *, *, #106, .T. ) ;
#183 = DIRECTION ( 'NONE',  ( 1.224646799147353207E-16, 1.000000000000000000, -0.000000000000000000 ) ) ;
#184 = PLANE ( 'NONE',  #45 ) ;
#185 = VERTEX_POINT ( 'NONE', #86 ) ;
#186 = EDGE_CURVE ( 'NONE', #208, #185, #266, .T. ) ;
#187 = AXIS2_PLACEMENT_3D ( 'NONE', #145, #112, #195 ) ;
#188 = DIRECTION ( 'NONE',  ( -1.000000000000000000, 0.000000000000000000, 0.000000000000000000 ) ) ;
#189 = CARTESIAN_POINT ( 'NONE',  ( -5.500000000000000000, 0.000000000000000000, 405.0000000000000000 ) ) ;
#190 = DATE_AND_TIME ( #167, #273 ) ;
#191 = CARTESIAN_POINT ( 'NONE',  ( 0.000000000000000000, 0.000000000000000000, 5.000000000000000000 ) ) ;
#192 = CARTESIAN_POINT ( 'NONE',  ( 0.000000000000000000, 0.000000000000000000, 405.0000000000000000 ) ) ;
#193 = DIRECTION ( 'NONE',  ( 0.000000000000000000, 0.000000000000000000, 1.000000000000000000 ) ) ;
#194 = SHAPE_DEFINITION_REPRESENTATION ( #149, #264 ) ;
#195 = DIRECTION ( 'NONE',  ( 1.000000000000000000, 0.000000000000000000, 0.000000000000000000 ) ) ;
#196 = DIRECTION ( 'NONE',  ( -0.000000000000000000, -0.000000000000000000, -1.000000000000000000 ) ) ;
#197 = CIRCLE ( 'NONE', #46, 5.699999999999999289 ) ;
#198 = CC_DESIGN_DATE_AND_TIME_ASSIGNMENT ( #304, #263, ( #44 ) ) ;
#199 =( GEOMETRIC_REPRESENTATION_CONTEXT ( 3 ) GLOBAL_UNCERTAINTY_ASSIGNED_CONTEXT ( ( #48 ) ) GLOBAL_UNIT_ASSIGNED_CONTEXT ( ( #38, #66, #36 ) ) REPRESENTATION_CONTEXT ( 'NONE', 'WORKASPACE' ) );
#200 = EDGE_CURVE ( 'NONE', #10, #107, #243, .T. ) ;
#201 = CC_DESIGN_APPROVAL ( #74, ( #176 ) ) ;
#202 = CC_DESIGN_DATE_AND_TIME_ASSIGNMENT ( #306, #94, ( #176 ) ) ;
#203 = PLANE ( 'NONE',  #226 ) ;
#204 = APPLICATION_CONTEXT ( 'configuration controlled 3d designs of mechanical parts and assemblies' ) ;
#205 = ORIENTED_EDGE ( 'NONE', *, *, #166, .T. ) ;
#206 = ORIENTED_EDGE ( 'NONE', *, *, #219, .T. ) ;
#207 = ORIENTED_EDGE ( 'NONE', *, *, #51, .T. ) ;
#208 = VERTEX_POINT ( 'NONE', #280 ) ;
#209 = CC_DESIGN_PERSON_AND_ORGANIZATION_ASSIGNMENT ( #150, #242, ( #299 ) ) ;
#210 = ORIENTED_EDGE ( 'NONE', *, *, #157, .T. ) ;
#211 = ORIENTED_EDGE ( 'NONE', *, *, #21, .T. ) ;
#212 = APPROVAL_STATUS ( 'not_yet_approved' ) ;
#213 = FACE_OUTER_BOUND ( 'NONE', #274, .T. ) ;
#214 = VECTOR ( 'NONE', #156, 1000.000000000000000 ) ;
#215 = DIRECTION ( 'NONE',  ( -0.000000000000000000, -0.000000000000000000, -1.000000000000000000 ) ) ;
#216 = SECURITY_CLASSIFICATION_LEVEL ( 'unclassified' ) ;
#217 = COORDINATED_UNIVERSAL_TIME_OFFSET ( 1, 0, .AHEAD. ) ;
#218 = DIRECTION ( 'NONE',  ( -0.000000000000000000, -0.000000000000000000, -1.000000000000000000 ) ) ;
#219 = EDGE_CURVE ( 'NONE', #10, #185, #59, .T. ) ;
#220 = DIRECTION ( 'NONE',  ( 0.000000000000000000, 0.000000000000000000, 1.000000000000000000 ) ) ;
#221 = FACE_OUTER_BOUND ( 'NONE', #78, .T. ) ;
#222 = APPROVAL_DATE_TIME ( #118, #74 ) ;
#223 = APPROVAL_PERSON_ORGANIZATION ( #139, #82, #33 ) ;
#224 = EDGE_CURVE ( 'NONE', #294, #103, #303, .T. ) ;
#225 = VECTOR ( 'NONE', #253, 1000.000000000000000 ) ;
#226 = AXIS2_PLACEMENT_3D ( 'NONE', #61, #105, #249 ) ;
#227 = CARTESIAN_POINT ( 'NONE',  ( 5.699999999999999289, 0.000000000000000000, 5.199999999999982414 ) ) ;
#228 = ORIENTED_EDGE ( 'NONE', *, *, #219, .F. ) ;
#229 = CARTESIAN_POINT ( 'NONE',  ( 8.000000000000000000, 9.797174393178825657E-16, 5.000000000000000000 ) ) ;
#230 = CIRCLE ( 'NONE', #93, 5.699999999999999289 ) ;
#231 = ORIENTED_EDGE ( 'NONE', *, *, #289, .F. ) ;
#232 = CARTESIAN_POINT ( 'NONE',  ( 0.000000000000000000, 0.000000000000000000, 405.0000000000000000 ) ) ;
#233 = CARTESIAN_POINT ( 'NONE',  ( 5.500000000000000000, 6.735557395310442023E-16, 405.0000000000000000 ) ) ;
#234 = DIRECTION ( 'NONE',  ( 1.000000000000000000, 0.000000000000000000, 0.000000000000000000 ) ) ;
#235 = APPROVAL_DATE_TIME ( #190, #97 ) ;
#236 = CYLINDRICAL_SURFACE ( 'NONE', #152, 8.000000000000000000 ) ;
#237 = LOCAL_TIME ( 11, 48, 35.00000000000000000, #111 ) ;
#238 = AXIS2_PLACEMENT_3D ( 'NONE', #227, #248, #181 ) ;
#239 = CARTESIAN_POINT ( 'NONE',  ( 0.000000000000000000, 0.000000000000000000, 5.199999999999982414 ) ) ;
#240 = APPROVAL_STATUS ( 'not_yet_approved' ) ;
#241 = CARTESIAN_POINT ( 'NONE',  ( -8.000000000000000000, 0.000000000000000000, 5.000000000000000000 ) ) ;
#242 = PERSON_AND_ORGANIZATION_ROLE ( 'creator' ) ;
#243 = CIRCLE ( 'NONE', #120, 8.000000000000000000 ) ;
#244 = PERSON_AND_ORGANIZATION ( #290, #58 ) ;
#245 = AXIS2_PLACEMENT_3D ( 'NONE', #170, #260, #307 ) ;
#246 = CIRCLE ( 'NONE', #285, 5.500000000000000000 ) ;
#247 = ORIENTED_EDGE ( 'NONE', *, *, #99, .T. ) ;
#248 = DIRECTION ( 'NONE',  ( 0.000000000000000000, -1.000000000000000000, 0.000000000000000000 ) ) ;
#249 = DIRECTION ( 'NONE',  ( 1.000000000000000000, 0.000000000000000000, -0.000000000000000000 ) ) ;
#250 = ORIENTED_EDGE ( 'NONE', *, *, #289, .T. ) ;
#251 = FACE_OUTER_BOUND ( 'NONE', #35, .T. ) ;
#252 = APPLICATION_PROTOCOL_DEFINITION ( 'international standard', 'config_control_design', 1994, #204 ) ;
#253 = DIRECTION ( 'NONE',  ( -0.000000000000000000, -0.000000000000000000, -1.000000000000000000 ) ) ;
#254 = AXIS2_PLACEMENT_3D ( 'NONE', #257, #15, #110 ) ;
#255 = EDGE_LOOP ( 'NONE', ( #155, #6, #211, #269 ) ) ;
#256 = CALENDAR_DATE ( 2022, 7, 7 ) ;
#257 = CARTESIAN_POINT ( 'NONE',  ( 0.000000000000000000, 0.000000000000000000, 405.0000000000000000 ) ) ;
#258 = CARTESIAN_POINT ( 'NONE',  ( 0.000000000000000000, 0.000000000000000000, 0.000000000000000000 ) ) ;
#259 = ADVANCED_FACE ( 'NONE', ( #221 ), #65, .T. ) ;
#260 = DIRECTION ( 'NONE',  ( -0.000000000000000000, -0.000000000000000000, -1.000000000000000000 ) ) ;
#261 = MECHANICAL_CONTEXT ( 'NONE', #204, 'mechanical' ) ;
#262 = DIRECTION ( 'NONE',  ( 1.000000000000000000, 0.000000000000000000, 0.000000000000000000 ) ) ;
#263 = DATE_TIME_ROLE ( 'creation_date' ) ;
#264 = ADVANCED_BREP_SHAPE_REPRESENTATION ( '35b0', ( #286, #85 ), #199 ) ;
#265 = CARTESIAN_POINT ( 'NONE',  ( 5.500000000000000000, 6.735557395310442023E-16, 5.199999999999982414 ) ) ;
#266 = CIRCLE ( 'NONE', #284, 8.000000000000000000 ) ;
#267 = CARTESIAN_POINT ( 'NONE',  ( -5.699999999999999289, 6.980486755139912122E-16, 5.199999999999982414 ) ) ;
#268 = EDGE_LOOP ( 'NONE', ( #129, #293 ) ) ;
#269 = ORIENTED_EDGE ( 'NONE', *, *, #157, .F. ) ;
#270 = ADVANCED_FACE ( 'NONE', ( #39 ), #184, .F. ) ;
#271 = ORIENTED_EDGE ( 'NONE', *, *, #200, .F. ) ;
#272 = FACE_OUTER_BOUND ( 'NONE', #164, .T. ) ;
#273 = LOCAL_TIME ( 11, 48, 35.00000000000000000, #109 ) ;
#274 = EDGE_LOOP ( 'NONE', ( #55, #297, #53, #180 ) ) ;
#275 = COORDINATED_UNIVERSAL_TIME_OFFSET ( 1, 0, .AHEAD. ) ;
#276 = DIRECTION ( 'NONE',  ( 1.000000000000000000, 0.000000000000000000, 0.000000000000000000 ) ) ;
#277 = DIRECTION ( 'NONE',  ( 0.000000000000000000, 0.000000000000000000, 1.000000000000000000 ) ) ;
#278 = DIRECTION ( 'NONE',  ( 1.000000000000000000, 0.000000000000000000, 0.000000000000000000 ) ) ;
#279 = APPROVAL_ROLE ( '' ) ;
#280 = CARTESIAN_POINT ( 'NONE',  ( 8.000000000000000000, 9.797174393178825657E-16, 0.000000000000000000 ) ) ;
#281 = CALENDAR_DATE ( 2022, 7, 7 ) ;
#282 = FACE_OUTER_BOUND ( 'NONE', #79, .T. ) ;
#283 = CALENDAR_DATE ( 2022, 7, 7 ) ;
#284 = AXIS2_PLACEMENT_3D ( 'NONE', #89, #63, #20 ) ;
#285 = AXIS2_PLACEMENT_3D ( 'NONE', #108, #128, #162 ) ;
#286 = MANIFOLD_SOLID_BREP ( 'Zaoblit1', #122 ) ;
#287 = PRODUCT_RELATED_PRODUCT_CATEGORY ( 'detail', '', ( #3 ) ) ;
#288 = VECTOR ( 'NONE', #296, 1000.000000000000000 ) ;
#289 = EDGE_CURVE ( 'NONE', #294, #29, #95, .T. ) ;
#290 = PERSON ( 'NEURÈENÝ', 'NEURÈENÝ', 'NEURÈENÝ', ('NEURÈENÝ'), ('NEURÈENÝ'), ('NEURÈENÝ') ) ;
#291 = CARTESIAN_POINT ( 'NONE',  ( -5.500000000000000000, 0.000000000000000000, 405.0000000000000000 ) ) ;
#292 = VERTEX_POINT ( 'NONE', #88 ) ;
#293 = ORIENTED_EDGE ( 'NONE', *, *, #186, .F. ) ;
#294 = VERTEX_POINT ( 'NONE', #233 ) ;
#295 = CYLINDRICAL_SURFACE ( 'NONE', #43, 5.500000000000000000 ) ;
#296 = DIRECTION ( 'NONE',  ( -0.000000000000000000, -0.000000000000000000, -1.000000000000000000 ) ) ;
#297 = ORIENTED_EDGE ( 'NONE', *, *, #69, .T. ) ;
#298 = CARTESIAN_POINT ( 'NONE',  ( -8.000000000000000000, 0.000000000000000000, 5.000000000000000000 ) ) ;
#299 = PRODUCT_DEFINITION_FORMATION_WITH_SPECIFIED_SOURCE ( 'LIBOVOLNÝ', '', #3, .NOT_KNOWN. ) ;
#300 = EDGE_CURVE ( 'NONE', #29, #294, #1, .T. ) ;
#301 = CIRCLE ( 'NONE', #238, 0.1999999999999996503 ) ;
#302 = PERSON_AND_ORGANIZATION ( #290, #58 ) ;
#303 = LINE ( 'NONE', #34, #225 ) ;
#304 = DATE_AND_TIME ( #281, #50 ) ;
#305 = FACE_OUTER_BOUND ( 'NONE', #255, .T. ) ;
#306 = DATE_AND_TIME ( #283, #237 ) ;
#307 = DIRECTION ( 'NONE',  ( -1.000000000000000000, 0.000000000000000000, 0.000000000000000000 ) ) ;
ENDSEC;
END-ISO-10303-21;
