ISO-10303-21;
HEADER;
FILE_DESCRIPTION (( 'STEP AP203' ),
    '1' );
FILE_NAME ('bcf2.STEP',
    '2022-07-07T09:47:40',
    ( '' ),
    ( '' ),
    'SwSTEP 2.0',
    'SolidWorks 2019',
    '' );
FILE_SCHEMA (( 'CONFIG_CONTROL_DESIGN' ));
ENDSEC;

DATA;
#1 = DATE_AND_TIME ( #218, #238 ) ;
#2 = DIRECTION ( 'NONE',  ( 1.000000000000000000, 0.000000000000000000, -0.000000000000000000 ) ) ;
#3 = LINE ( 'NONE', #287, #231 ) ;
#4 = DIRECTION ( 'NONE',  ( -0.000000000000000000, -0.000000000000000000, -1.000000000000000000 ) ) ;
#5 = MANIFOLD_SOLID_BREP ( 'Zaoblit1', #297 ) ;
#6 = CIRCLE ( 'NONE', #46, 5.699999999999999289 ) ;
#7 = ORIENTED_EDGE ( 'NONE', *, *, #261, .T. ) ;
#8 = EDGE_LOOP ( 'NONE', ( #129, #296 ) ) ;
#9 = ORIENTED_EDGE ( 'NONE', *, *, #87, .T. ) ;
#10 = VECTOR ( 'NONE', #123, 1000.000000000000000 ) ;
#11 = EDGE_CURVE ( 'NONE', #185, #293, #137, .T. ) ;
#12 = PERSON_AND_ORGANIZATION ( #91, #39 ) ;
#13 = EDGE_LOOP ( 'NONE', ( #125, #67, #7, #161 ) ) ;
#14 = PERSON_AND_ORGANIZATION ( #91, #39 ) ;
#15 = ORIENTED_EDGE ( 'NONE', *, *, #118, .F. ) ;
#16 = ADVANCED_BREP_SHAPE_REPRESENTATION ( 'bcf2', ( #5, #177 ), #54 ) ;
#17 = CALENDAR_DATE ( 2022, 7, 7 ) ;
#18 = EDGE_CURVE ( 'NONE', #112, #62, #34, .T. ) ;
#19 = DIRECTION ( 'NONE',  ( 0.000000000000000000, -1.000000000000000000, 0.000000000000000000 ) ) ;
#20 = AXIS2_PLACEMENT_3D ( 'NONE', #232, #73, #211 ) ;
#21 = VERTEX_POINT ( 'NONE', #24 ) ;
#22 = CALENDAR_DATE ( 2022, 7, 7 ) ;
#23 = CARTESIAN_POINT ( 'NONE',  ( 0.000000000000000000, 0.000000000000000000, 5.000000000000000000 ) ) ;
#24 = CARTESIAN_POINT ( 'NONE',  ( 5.500000000000000000, 6.735557395310442023E-16, 5.199999999999982414 ) ) ;
#25 = APPROVAL ( #205, 'NEURÈENÝ' ) ;
#26 = CIRCLE ( 'NONE', #209, 0.1999999999999996503 ) ;
#27 = LINE ( 'NONE', #219, #195 ) ;
#28 = DIRECTION ( 'NONE',  ( 0.000000000000000000, 0.000000000000000000, 1.000000000000000000 ) ) ;
#29 = EDGE_CURVE ( 'NONE', #62, #183, #149, .T. ) ;
#30 = AXIS2_PLACEMENT_3D ( 'NONE', #187, #153, #277 ) ;
#31 = CARTESIAN_POINT ( 'NONE',  ( 0.000000000000000000, 0.000000000000000000, 5.199999999999982414 ) ) ;
#32 = CARTESIAN_POINT ( 'NONE',  ( -8.000000000000000000, 0.000000000000000000, 0.000000000000000000 ) ) ;
#33 =( NAMED_UNIT ( * ) PLANE_ANGLE_UNIT ( ) SI_UNIT ( $, .RADIAN. ) );
#34 = CIRCLE ( 'NONE', #164, 8.000000000000000000 ) ;
#35 = EDGE_LOOP ( 'NONE', ( #206, #171 ) ) ;
#36 = ADVANCED_FACE ( 'NONE', ( #48 ), #172, .T. ) ;
#37 = EDGE_LOOP ( 'NONE', ( #119, #275, #45, #269 ) ) ;
#38 = VECTOR ( 'NONE', #104, 1000.000000000000000 ) ;
#39 = ORGANIZATION ( 'NEURÈENÝ', 'NEURÈENÝ', '' ) ;
#40 = COORDINATED_UNIVERSAL_TIME_OFFSET ( 1, 0, .AHEAD. ) ;
#41 = EDGE_LOOP ( 'NONE', ( #102, #92 ) ) ;
#42 = CARTESIAN_POINT ( 'NONE',  ( 5.500000000000000000, 6.735557395310442023E-16, 1004.999999999999886 ) ) ;
#43 = CARTESIAN_POINT ( 'NONE',  ( 0.000000000000000000, 0.000000000000000000, 5.000000000000000000 ) ) ;
#44 = EDGE_CURVE ( 'NONE', #112, #145, #126, .T. ) ;
#45 = ORIENTED_EDGE ( 'NONE', *, *, #87, .F. ) ;
#46 = AXIS2_PLACEMENT_3D ( 'NONE', #23, #301, #75 ) ;
#47 = APPROVAL_PERSON_ORGANIZATION ( #117, #267, #93 ) ;
#48 = FACE_OUTER_BOUND ( 'NONE', #70, .T. ) ;
#49 = CARTESIAN_POINT ( 'NONE',  ( -8.000000000000000000, 0.000000000000000000, 5.000000000000000000 ) ) ;
#50 = CC_DESIGN_PERSON_AND_ORGANIZATION_ASSIGNMENT ( #95, #61, ( #108 ) ) ;
#51 = SHAPE_DEFINITION_REPRESENTATION ( #142, #16 ) ;
#52 = UNCERTAINTY_MEASURE_WITH_UNIT (LENGTH_MEASURE( 1.000000000000000082E-05 ), #290, 'distance_accuracy_value', 'NONE');
#53 = DIRECTION ( 'NONE',  ( -0.000000000000000000, -0.000000000000000000, -1.000000000000000000 ) ) ;
#54 =( GEOMETRIC_REPRESENTATION_CONTEXT ( 3 ) GLOBAL_UNCERTAINTY_ASSIGNED_CONTEXT ( ( #52 ) ) GLOBAL_UNIT_ASSIGNED_CONTEXT ( ( #290, #33, #138 ) ) REPRESENTATION_CONTEXT ( 'NONE', 'WORKASPACE' ) );
#55 = FACE_OUTER_BOUND ( 'NONE', #65, .T. ) ;
#56 = DIRECTION ( 'NONE',  ( 0.000000000000000000, 0.000000000000000000, 1.000000000000000000 ) ) ;
#57 = CYLINDRICAL_SURFACE ( 'NONE', #273, 8.000000000000000000 ) ;
#58 = LOCAL_TIME ( 11, 47, 40.00000000000000000, #178 ) ;
#59 = FACE_OUTER_BOUND ( 'NONE', #8, .T. ) ;
#60 = EDGE_CURVE ( 'NONE', #21, #210, #26, .T. ) ;
#61 = PERSON_AND_ORGANIZATION_ROLE ( 'creator' ) ;
#62 = VERTEX_POINT ( 'NONE', #216 ) ;
#63 = PRODUCT_RELATED_PRODUCT_CATEGORY ( 'detail', '', ( #212 ) ) ;
#64 = ORIENTED_EDGE ( 'NONE', *, *, #134, .T. ) ;
#65 = EDGE_LOOP ( 'NONE', ( #94, #213, #190, #272 ) ) ;
#66 = DATE_TIME_ROLE ( 'classification_date' ) ;
#67 = ORIENTED_EDGE ( 'NONE', *, *, #29, .T. ) ;
#68 = CIRCLE ( 'NONE', #20, 0.1999999999999996503 ) ;
#69 = APPROVAL_PERSON_ORGANIZATION ( #74, #154, #255 ) ;
#70 = EDGE_LOOP ( 'NONE', ( #259, #203, #250, #247 ) ) ;
#71 = CC_DESIGN_PERSON_AND_ORGANIZATION_ASSIGNMENT ( #14, #184, ( #292 ) ) ;
#72 = PERSON_AND_ORGANIZATION ( #91, #39 ) ;
#73 = DIRECTION ( 'NONE',  ( 1.224646799147353207E-16, 1.000000000000000000, -0.000000000000000000 ) ) ;
#74 = PERSON_AND_ORGANIZATION ( #91, #39 ) ;
#75 = DIRECTION ( 'NONE',  ( 1.000000000000000000, 0.000000000000000000, 0.000000000000000000 ) ) ;
#76 = AXIS2_PLACEMENT_3D ( 'NONE', #106, #83, #156 ) ;
#77 = CC_DESIGN_SECURITY_CLASSIFICATION ( #223, ( #292 ) ) ;
#78 = EDGE_CURVE ( 'NONE', #293, #185, #127, .T. ) ;
#79 = CARTESIAN_POINT ( 'NONE',  ( 0.000000000000000000, 0.000000000000000000, 0.000000000000000000 ) ) ;
#80 = CYLINDRICAL_SURFACE ( 'NONE', #244, 5.500000000000000000 ) ;
#81 = CARTESIAN_POINT ( 'NONE',  ( 0.000000000000000000, 0.000000000000000000, 5.199999999999982414 ) ) ;
#82 = ADVANCED_FACE ( 'NONE', ( #233 ), #80, .T. ) ;
#83 = DIRECTION ( 'NONE',  ( 0.000000000000000000, 0.000000000000000000, 1.000000000000000000 ) ) ;
#84 = DIRECTION ( 'NONE',  ( 1.000000000000000000, 0.000000000000000000, 0.000000000000000000 ) ) ;
#85 = CARTESIAN_POINT ( 'NONE',  ( -5.699999999999999289, 6.980486755139912122E-16, 4.999999999999991118 ) ) ;
#86 = CARTESIAN_POINT ( 'NONE',  ( 5.699999999999999289, 0.000000000000000000, 4.999999999999991118 ) ) ;
#87 = EDGE_CURVE ( 'NONE', #210, #162, #199, .T. ) ;
#88 = APPLICATION_CONTEXT ( 'configuration controlled 3d designs of mechanical parts and assemblies' ) ;
#89 = EDGE_CURVE ( 'NONE', #180, #21, #160, .T. ) ;
#90 = CIRCLE ( 'NONE', #256, 8.000000000000000000 ) ;
#91 = PERSON ( 'NEURÈENÝ', 'NEURÈENÝ', 'NEURÈENÝ', ('NEURÈENÝ'), ('NEURÈENÝ'), ('NEURÈENÝ') ) ;
#92 = ORIENTED_EDGE ( 'NONE', *, *, #78, .T. ) ;
#93 = APPROVAL_ROLE ( '' ) ;
#94 = ORIENTED_EDGE ( 'NONE', *, *, #78, .F. ) ;
#95 = PERSON_AND_ORGANIZATION ( #91, #39 ) ;
#96 = EDGE_CURVE ( 'NONE', #145, #183, #169, .T. ) ;
#97 = APPROVAL_PERSON_ORGANIZATION ( #182, #25, #159 ) ;
#98 = DIRECTION ( 'NONE',  ( -0.000000000000000000, -0.000000000000000000, -1.000000000000000000 ) ) ;
#99 = APPROVAL_STATUS ( 'not_yet_approved' ) ;
#100 = DIRECTION ( 'NONE',  ( 1.000000000000000000, 0.000000000000000000, 0.000000000000000000 ) ) ;
#101 = EDGE_CURVE ( 'NONE', #180, #162, #68, .T. ) ;
#102 = ORIENTED_EDGE ( 'NONE', *, *, #11, .T. ) ;
#103 = AXIS2_PLACEMENT_3D ( 'NONE', #197, #133, #2 ) ;
#104 = DIRECTION ( 'NONE',  ( -0.000000000000000000, -0.000000000000000000, -1.000000000000000000 ) ) ;
#105 = DIRECTION ( 'NONE',  ( -0.000000000000000000, -0.000000000000000000, -1.000000000000000000 ) ) ;
#106 = CARTESIAN_POINT ( 'NONE',  ( 0.000000000000000000, 0.000000000000000000, 1004.999999999999886 ) ) ;
#107 = DIRECTION ( 'NONE',  ( 1.000000000000000000, 0.000000000000000000, 0.000000000000000000 ) ) ;
#108 = PRODUCT_DEFINITION ( 'NEZNÁMÝ', '', #292, #128 ) ;
#109 = CYLINDRICAL_SURFACE ( 'NONE', #289, 5.500000000000000000 ) ;
#110 = LOCAL_TIME ( 11, 47, 40.00000000000000000, #163 ) ;
#111 = CARTESIAN_POINT ( 'NONE',  ( -5.500000000000000000, 0.000000000000000000, 5.199999999999982414 ) ) ;
#112 = VERTEX_POINT ( 'NONE', #279 ) ;
#113 = ORIENTED_EDGE ( 'NONE', *, *, #101, .F. ) ;
#114 = AXIS2_PLACEMENT_3D ( 'NONE', #132, #196, #84 ) ;
#115 = CC_DESIGN_APPROVAL ( #154, ( #223 ) ) ;
#116 = DATE_AND_TIME ( #17, #217 ) ;
#117 = PERSON_AND_ORGANIZATION ( #91, #39 ) ;
#118 = EDGE_CURVE ( 'NONE', #162, #210, #6, .T. ) ;
#119 = ORIENTED_EDGE ( 'NONE', *, *, #89, .F. ) ;
#120 = COORDINATED_UNIVERSAL_TIME_OFFSET ( 1, 0, .AHEAD. ) ;
#121 = AXIS2_PLACEMENT_3D ( 'NONE', #303, #98, #283 ) ;
#122 = DIRECTION ( 'NONE',  ( -1.000000000000000000, 0.000000000000000000, 0.000000000000000000 ) ) ;
#123 = DIRECTION ( 'NONE',  ( -0.000000000000000000, -0.000000000000000000, -1.000000000000000000 ) ) ;
#124 = DIRECTION ( 'NONE',  ( -1.000000000000000000, 0.000000000000000000, 0.000000000000000000 ) ) ;
#125 = ORIENTED_EDGE ( 'NONE', *, *, #234, .F. ) ;
#126 = LINE ( 'NONE', #49, #38 ) ;
#127 = CIRCLE ( 'NONE', #144, 5.500000000000000000 ) ;
#128 = DESIGN_CONTEXT ( 'detailed design', #141, 'design' ) ;
#129 = ORIENTED_EDGE ( 'NONE', *, *, #18, .T. ) ;
#130 = CC_DESIGN_PERSON_AND_ORGANIZATION_ASSIGNMENT ( #72, #276, ( #292 ) ) ;
#131 = DIRECTION ( 'NONE',  ( 1.000000000000000000, 0.000000000000000000, 0.000000000000000000 ) ) ;
#132 = CARTESIAN_POINT ( 'NONE',  ( 0.000000000000000000, 0.000000000000000000, 0.000000000000000000 ) ) ;
#133 = DIRECTION ( 'NONE',  ( 0.000000000000000000, 0.000000000000000000, 1.000000000000000000 ) ) ;
#134 = EDGE_CURVE ( 'NONE', #185, #180, #27, .T. ) ;
#135 = PLANE ( 'NONE',  #291 ) ;
#136 = PLANE ( 'NONE',  #103 ) ;
#137 = CIRCLE ( 'NONE', #248, 5.500000000000000000 ) ;
#138 =( NAMED_UNIT ( * ) SI_UNIT ( $, .STERADIAN. ) SOLID_ANGLE_UNIT ( ) );
#139 = ADVANCED_FACE ( 'NONE', ( #193 ), #136, .F. ) ;
#140 = EDGE_LOOP ( 'NONE', ( #9, #143 ) ) ;
#141 = APPLICATION_CONTEXT ( 'configuration controlled 3d designs of mechanical parts and assemblies' ) ;
#142 = PRODUCT_DEFINITION_SHAPE ( 'NONE', 'NONE',  #108 ) ;
#143 = ORIENTED_EDGE ( 'NONE', *, *, #118, .T. ) ;
#144 = AXIS2_PLACEMENT_3D ( 'NONE', #151, #282, #306 ) ;
#145 = VERTEX_POINT ( 'NONE', #32 ) ;
#146 = ORIENTED_EDGE ( 'NONE', *, *, #11, .F. ) ;
#147 = DIRECTION ( 'NONE',  ( 0.000000000000000000, 0.000000000000000000, 1.000000000000000000 ) ) ;
#148 = TOROIDAL_SURFACE ( 'NONE', #236, 5.699999999999999289, 0.2000000000000000111 ) ;
#149 = LINE ( 'NONE', #302, #10 ) ;
#150 = MECHANICAL_CONTEXT ( 'NONE', #88, 'mechanical' ) ;
#151 = CARTESIAN_POINT ( 'NONE',  ( 0.000000000000000000, 0.000000000000000000, 1004.999999999999886 ) ) ;
#152 = DIRECTION ( 'NONE',  ( 0.000000000000000000, 0.000000000000000000, -1.000000000000000000 ) ) ;
#153 = DIRECTION ( 'NONE',  ( 0.000000000000000000, 0.000000000000000000, 1.000000000000000000 ) ) ;
#154 = APPROVAL ( #274, 'NEURÈENÝ' ) ;
#155 = DIRECTION ( 'NONE',  ( 1.000000000000000000, 0.000000000000000000, 0.000000000000000000 ) ) ;
#156 = DIRECTION ( 'NONE',  ( 1.000000000000000000, 0.000000000000000000, -0.000000000000000000 ) ) ;
#157 = CARTESIAN_POINT ( 'NONE',  ( 0.000000000000000000, 0.000000000000000000, 5.000000000000000000 ) ) ;
#158 = ADVANCED_FACE ( 'NONE', ( #55 ), #109, .T. ) ;
#159 = APPROVAL_ROLE ( '' ) ;
#160 = CIRCLE ( 'NONE', #30, 5.500000000000000000 ) ;
#161 = ORIENTED_EDGE ( 'NONE', *, *, #44, .F. ) ;
#162 = VERTEX_POINT ( 'NONE', #85 ) ;
#163 = COORDINATED_UNIVERSAL_TIME_OFFSET ( 1, 0, .AHEAD. ) ;
#164 = AXIS2_PLACEMENT_3D ( 'NONE', #257, #281, #165 ) ;
#165 = DIRECTION ( 'NONE',  ( 1.000000000000000000, 0.000000000000000000, 0.000000000000000000 ) ) ;
#166 = SECURITY_CLASSIFICATION_LEVEL ( 'unclassified' ) ;
#167 = ORIENTED_EDGE ( 'NONE', *, *, #60, .T. ) ;
#168 = DATE_AND_TIME ( #294, #58 ) ;
#169 = CIRCLE ( 'NONE', #268, 8.000000000000000000 ) ;
#170 = DIRECTION ( 'NONE',  ( 0.000000000000000000, 0.000000000000000000, 1.000000000000000000 ) ) ;
#171 = ORIENTED_EDGE ( 'NONE', *, *, #261, .F. ) ;
#172 = CYLINDRICAL_SURFACE ( 'NONE', #280, 8.000000000000000000 ) ;
#173 = CARTESIAN_POINT ( 'NONE',  ( 0.000000000000000000, 0.000000000000000000, 5.000000000000000000 ) ) ;
#174 = FACE_OUTER_BOUND ( 'NONE', #13, .T. ) ;
#175 = CARTESIAN_POINT ( 'NONE',  ( 8.000000000000000000, 9.797174393178825657E-16, 0.000000000000000000 ) ) ;
#176 = TOROIDAL_SURFACE ( 'NONE', #241, 5.699999999999999289, 0.2000000000000000111 ) ;
#177 = AXIS2_PLACEMENT_3D ( 'NONE', #208, #147, #298 ) ;
#178 = COORDINATED_UNIVERSAL_TIME_OFFSET ( 1, 0, .AHEAD. ) ;
#179 = ADVANCED_FACE ( 'NONE', ( #201, #59 ), #135, .T. ) ;
#180 = VERTEX_POINT ( 'NONE', #111 ) ;
#181 = EDGE_CURVE ( 'NONE', #293, #21, #3, .T. ) ;
#182 = PERSON_AND_ORGANIZATION ( #91, #39 ) ;
#183 = VERTEX_POINT ( 'NONE', #175 ) ;
#184 = PERSON_AND_ORGANIZATION_ROLE ( 'design_supplier' ) ;
#185 = VERTEX_POINT ( 'NONE', #288 ) ;
#186 = APPROVAL_DATE_TIME ( #168, #267 ) ;
#187 = CARTESIAN_POINT ( 'NONE',  ( 0.000000000000000000, 0.000000000000000000, 5.199999999999982414 ) ) ;
#188 = DATE_AND_TIME ( #22, #110 ) ;
#189 = CARTESIAN_POINT ( 'NONE',  ( 0.000000000000000000, 0.000000000000000000, 1004.999999999999886 ) ) ;
#190 = ORIENTED_EDGE ( 'NONE', *, *, #229, .T. ) ;
#191 = CC_DESIGN_APPROVAL ( #25, ( #292 ) ) ;
#192 = DIRECTION ( 'NONE',  ( -1.000000000000000000, 0.000000000000000000, 0.000000000000000000 ) ) ;
#193 = FACE_OUTER_BOUND ( 'NONE', #35, .T. ) ;
#194 = FACE_OUTER_BOUND ( 'NONE', #37, .T. ) ;
#195 = VECTOR ( 'NONE', #105, 1000.000000000000000 ) ;
#196 = DIRECTION ( 'NONE',  ( 0.000000000000000000, 0.000000000000000000, 1.000000000000000000 ) ) ;
#197 = CARTESIAN_POINT ( 'NONE',  ( 0.000000000000000000, 0.000000000000000000, 0.000000000000000000 ) ) ;
#198 = DIRECTION ( 'NONE',  ( 1.000000000000000000, 0.000000000000000000, -0.000000000000000000 ) ) ;
#199 = CIRCLE ( 'NONE', #121, 5.699999999999999289 ) ;
#200 = CC_DESIGN_APPROVAL ( #267, ( #108 ) ) ;
#201 = FACE_BOUND ( 'NONE', #140, .T. ) ;
#202 = CC_DESIGN_DATE_AND_TIME_ASSIGNMENT ( #207, #66, ( #223 ) ) ;
#203 = ORIENTED_EDGE ( 'NONE', *, *, #18, .F. ) ;
#204 = AXIS2_PLACEMENT_3D ( 'NONE', #81, #56, #155 ) ;
#205 = APPROVAL_STATUS ( 'not_yet_approved' ) ;
#206 = ORIENTED_EDGE ( 'NONE', *, *, #96, .F. ) ;
#207 = DATE_AND_TIME ( #226, #225 ) ;
#208 = CARTESIAN_POINT ( 'NONE',  ( 0.000000000000000000, 0.000000000000000000, 0.000000000000000000 ) ) ;
#209 = AXIS2_PLACEMENT_3D ( 'NONE', #254, #19, #152 ) ;
#210 = VERTEX_POINT ( 'NONE', #86 ) ;
#211 = DIRECTION ( 'NONE',  ( -1.000000000000000000, 1.224646799147353454E-16, 0.000000000000000000 ) ) ;
#212 = PRODUCT ( 'bcf2', 'bcf2', '', ( #150 ) ) ;
#213 = ORIENTED_EDGE ( 'NONE', *, *, #181, .T. ) ;
#214 = ADVANCED_FACE ( 'NONE', ( #194 ), #148, .F. ) ;
#215 = CIRCLE ( 'NONE', #114, 8.000000000000000000 ) ;
#216 = CARTESIAN_POINT ( 'NONE',  ( 8.000000000000000000, 9.797174393178825657E-16, 5.000000000000000000 ) ) ;
#217 = LOCAL_TIME ( 11, 47, 40.00000000000000000, #120 ) ;
#218 = CALENDAR_DATE ( 2022, 7, 7 ) ;
#219 = CARTESIAN_POINT ( 'NONE',  ( -5.500000000000000000, 0.000000000000000000, 1004.999999999999886 ) ) ;
#220 = FACE_OUTER_BOUND ( 'NONE', #41, .T. ) ;
#221 = DIRECTION ( 'NONE',  ( 0.000000000000000000, 0.000000000000000000, 1.000000000000000000 ) ) ;
#222 = DIRECTION ( 'NONE',  ( -0.000000000000000000, -0.000000000000000000, -1.000000000000000000 ) ) ;
#223 = SECURITY_CLASSIFICATION ( '', '', #166 ) ;
#224 = APPLICATION_PROTOCOL_DEFINITION ( 'international standard', 'config_control_design', 1994, #88 ) ;
#225 = LOCAL_TIME ( 11, 47, 40.00000000000000000, #278 ) ;
#226 = CALENDAR_DATE ( 2022, 7, 7 ) ;
#227 = ORIENTED_EDGE ( 'NONE', *, *, #181, .F. ) ;
#228 = APPLICATION_PROTOCOL_DEFINITION ( 'international standard', 'config_control_design', 1994, #141 ) ;
#229 = EDGE_CURVE ( 'NONE', #21, #180, #265, .T. ) ;
#230 = CARTESIAN_POINT ( 'NONE',  ( 0.000000000000000000, 0.000000000000000000, 1004.999999999999886 ) ) ;
#231 = VECTOR ( 'NONE', #242, 1000.000000000000000 ) ;
#232 = CARTESIAN_POINT ( 'NONE',  ( -5.699999999999999289, 6.980486755139912122E-16, 5.199999999999982414 ) ) ;
#233 = FACE_OUTER_BOUND ( 'NONE', #246, .T. ) ;
#234 = EDGE_CURVE ( 'NONE', #62, #112, #90, .T. ) ;
#235 = EDGE_LOOP ( 'NONE', ( #113, #270, #167, #15 ) ) ;
#236 = AXIS2_PLACEMENT_3D ( 'NONE', #266, #285, #284 ) ;
#237 = DIRECTION ( 'NONE',  ( 0.000000000000000000, 0.000000000000000000, 1.000000000000000000 ) ) ;
#238 = LOCAL_TIME ( 11, 47, 40.00000000000000000, #40 ) ;
#239 = CARTESIAN_POINT ( 'NONE',  ( 0.000000000000000000, 0.000000000000000000, 5.000000000000000000 ) ) ;
#240 = FACE_OUTER_BOUND ( 'NONE', #235, .T. ) ;
#241 = AXIS2_PLACEMENT_3D ( 'NONE', #31, #221, #107 ) ;
#242 = DIRECTION ( 'NONE',  ( -0.000000000000000000, -0.000000000000000000, -1.000000000000000000 ) ) ;
#243 = DATE_TIME_ROLE ( 'creation_date' ) ;
#244 = AXIS2_PLACEMENT_3D ( 'NONE', #189, #53, #122 ) ;
#245 = ADVANCED_FACE ( 'NONE', ( #220 ), #307, .T. ) ;
#246 = EDGE_LOOP ( 'NONE', ( #227, #146, #64, #252 ) ) ;
#247 = ORIENTED_EDGE ( 'NONE', *, *, #96, .T. ) ;
#248 = AXIS2_PLACEMENT_3D ( 'NONE', #230, #170, #299 ) ;
#249 = PERSON_AND_ORGANIZATION_ROLE ( 'classification_officer' ) ;
#250 = ORIENTED_EDGE ( 'NONE', *, *, #44, .T. ) ;
#251 = ADVANCED_FACE ( 'NONE', ( #240 ), #176, .F. ) ;
#252 = ORIENTED_EDGE ( 'NONE', *, *, #89, .T. ) ;
#253 = PERSON_AND_ORGANIZATION ( #91, #39 ) ;
#254 = CARTESIAN_POINT ( 'NONE',  ( 5.699999999999999289, 0.000000000000000000, 5.199999999999982414 ) ) ;
#255 = APPROVAL_ROLE ( '' ) ;
#256 = AXIS2_PLACEMENT_3D ( 'NONE', #239, #28, #131 ) ;
#257 = CARTESIAN_POINT ( 'NONE',  ( 0.000000000000000000, 0.000000000000000000, 5.000000000000000000 ) ) ;
#258 = DIRECTION ( 'NONE',  ( -0.000000000000000000, -0.000000000000000000, -1.000000000000000000 ) ) ;
#259 = ORIENTED_EDGE ( 'NONE', *, *, #29, .F. ) ;
#260 = CARTESIAN_POINT ( 'NONE',  ( 0.000000000000000000, 0.000000000000000000, 1004.999999999999886 ) ) ;
#261 = EDGE_CURVE ( 'NONE', #183, #145, #215, .T. ) ;
#262 = DIRECTION ( 'NONE',  ( 0.000000000000000000, 0.000000000000000000, 1.000000000000000000 ) ) ;
#263 = DIRECTION ( 'NONE',  ( -1.000000000000000000, 0.000000000000000000, 0.000000000000000000 ) ) ;
#264 = ADVANCED_FACE ( 'NONE', ( #174 ), #57, .T. ) ;
#265 = CIRCLE ( 'NONE', #204, 5.500000000000000000 ) ;
#266 = CARTESIAN_POINT ( 'NONE',  ( 0.000000000000000000, 0.000000000000000000, 5.199999999999982414 ) ) ;
#267 = APPROVAL ( #99, 'NEURÈENÝ' ) ;
#268 = AXIS2_PLACEMENT_3D ( 'NONE', #79, #237, #100 ) ;
#269 = ORIENTED_EDGE ( 'NONE', *, *, #60, .F. ) ;
#270 = ORIENTED_EDGE ( 'NONE', *, *, #229, .F. ) ;
#271 = APPROVAL_DATE_TIME ( #188, #25 ) ;
#272 = ORIENTED_EDGE ( 'NONE', *, *, #134, .F. ) ;
#273 = AXIS2_PLACEMENT_3D ( 'NONE', #157, #222, #124 ) ;
#274 = APPROVAL_STATUS ( 'not_yet_approved' ) ;
#275 = ORIENTED_EDGE ( 'NONE', *, *, #101, .T. ) ;
#276 = PERSON_AND_ORGANIZATION_ROLE ( 'creator' ) ;
#277 = DIRECTION ( 'NONE',  ( 1.000000000000000000, 0.000000000000000000, 0.000000000000000000 ) ) ;
#278 = COORDINATED_UNIVERSAL_TIME_OFFSET ( 1, 0, .AHEAD. ) ;
#279 = CARTESIAN_POINT ( 'NONE',  ( -8.000000000000000000, 0.000000000000000000, 5.000000000000000000 ) ) ;
#280 = AXIS2_PLACEMENT_3D ( 'NONE', #43, #258, #192 ) ;
#281 = DIRECTION ( 'NONE',  ( 0.000000000000000000, 0.000000000000000000, 1.000000000000000000 ) ) ;
#282 = DIRECTION ( 'NONE',  ( 0.000000000000000000, 0.000000000000000000, 1.000000000000000000 ) ) ;
#283 = DIRECTION ( 'NONE',  ( 1.000000000000000000, 0.000000000000000000, 0.000000000000000000 ) ) ;
#284 = DIRECTION ( 'NONE',  ( 1.000000000000000000, 0.000000000000000000, 0.000000000000000000 ) ) ;
#285 = DIRECTION ( 'NONE',  ( 0.000000000000000000, 0.000000000000000000, 1.000000000000000000 ) ) ;
#286 = CC_DESIGN_PERSON_AND_ORGANIZATION_ASSIGNMENT ( #253, #249, ( #223 ) ) ;
#287 = CARTESIAN_POINT ( 'NONE',  ( 5.500000000000000000, 6.735557395310442023E-16, 1004.999999999999886 ) ) ;
#288 = CARTESIAN_POINT ( 'NONE',  ( -5.500000000000000000, 0.000000000000000000, 1004.999999999999886 ) ) ;
#289 = AXIS2_PLACEMENT_3D ( 'NONE', #260, #4, #263 ) ;
#290 =( LENGTH_UNIT ( ) NAMED_UNIT ( * ) SI_UNIT ( .MILLI., .METRE. ) );
#291 = AXIS2_PLACEMENT_3D ( 'NONE', #173, #262, #198 ) ;
#292 = PRODUCT_DEFINITION_FORMATION_WITH_SPECIFIED_SOURCE ( 'LIBOVOLNÝ', '', #212, .NOT_KNOWN. ) ;
#293 = VERTEX_POINT ( 'NONE', #42 ) ;
#294 = CALENDAR_DATE ( 2022, 7, 7 ) ;
#295 = CC_DESIGN_DATE_AND_TIME_ASSIGNMENT ( #116, #243, ( #108 ) ) ;
#296 = ORIENTED_EDGE ( 'NONE', *, *, #234, .T. ) ;
#297 = CLOSED_SHELL ( 'NONE', ( #214, #158, #264, #36, #179, #139, #82, #245, #251 ) ) ;
#298 = DIRECTION ( 'NONE',  ( 1.000000000000000000, 0.000000000000000000, 0.000000000000000000 ) ) ;
#299 = DIRECTION ( 'NONE',  ( 1.000000000000000000, 0.000000000000000000, 0.000000000000000000 ) ) ;
#300 = PERSON_AND_ORGANIZATION_ROLE ( 'design_owner' ) ;
#301 = DIRECTION ( 'NONE',  ( -0.000000000000000000, -0.000000000000000000, -1.000000000000000000 ) ) ;
#302 = CARTESIAN_POINT ( 'NONE',  ( 8.000000000000000000, 9.797174393178825657E-16, 5.000000000000000000 ) ) ;
#303 = CARTESIAN_POINT ( 'NONE',  ( 0.000000000000000000, 0.000000000000000000, 5.000000000000000000 ) ) ;
#304 = APPROVAL_DATE_TIME ( #1, #154 ) ;
#305 = CC_DESIGN_PERSON_AND_ORGANIZATION_ASSIGNMENT ( #12, #300, ( #212 ) ) ;
#306 = DIRECTION ( 'NONE',  ( 1.000000000000000000, 0.000000000000000000, 0.000000000000000000 ) ) ;
#307 = PLANE ( 'NONE',  #76 ) ;
ENDSEC;
END-ISO-10303-21;
