ISO-10303-21;
HEADER;
FILE_DESCRIPTION (( 'STEP AP203' ),
    '1' );
FILE_NAME ('33cb.STEP',
    '2022-07-07T09:52:20',
    ( '' ),
    ( '' ),
    'SwSTEP 2.0',
    'SolidWorks 2019',
    '' );
FILE_SCHEMA (( 'CONFIG_CONTROL_DESIGN' ));
ENDSEC;

DATA;
#1 = ORIENTED_EDGE ( 'NONE', *, *, #265, .T. ) ;
#2 = PLANE ( 'NONE',  #59 ) ;
#3 = CIRCLE ( 'NONE', #45, 8.000000000000000000 ) ;
#4 = AXIS2_PLACEMENT_3D ( 'NONE', #206, #37, #135 ) ;
#5 = CYLINDRICAL_SURFACE ( 'NONE', #15, 5.100000000000001421 ) ;
#6 = DIRECTION ( 'NONE',  ( 0.000000000000000000, 0.000000000000000000, 1.000000000000000000 ) ) ;
#7 = ORIENTED_EDGE ( 'NONE', *, *, #77, .F. ) ;
#8 = MANIFOLD_SOLID_BREP ( 'Zaoblit1', #94 ) ;
#9 = ORIENTED_EDGE ( 'NONE', *, *, #265, .F. ) ;
#10 = DIRECTION ( 'NONE',  ( 1.000000000000000000, 0.000000000000000000, -0.000000000000000000 ) ) ;
#11 = AXIS2_PLACEMENT_3D ( 'NONE', #249, #32, #107 ) ;
#12 = CARTESIAN_POINT ( 'NONE',  ( 0.000000000000000000, 0.000000000000000000, 5.000000000000000000 ) ) ;
#13 = ADVANCED_FACE ( 'NONE', ( #91 ), #293, .F. ) ;
#14 = PERSON_AND_ORGANIZATION_ROLE ( 'creator' ) ;
#15 = AXIS2_PLACEMENT_3D ( 'NONE', #202, #30, #125 ) ;
#16 = DATE_AND_TIME ( #208, #129 ) ;
#17 = DIRECTION ( 'NONE',  ( 1.224646799147353207E-16, 1.000000000000000000, -0.000000000000000000 ) ) ;
#18 = APPROVAL_DATE_TIME ( #71, #191 ) ;
#19 = EDGE_LOOP ( 'NONE', ( #302, #160, #228, #250 ) ) ;
#20 = AXIS2_PLACEMENT_3D ( 'NONE', #27, #155, #264 ) ;
#21 = EDGE_LOOP ( 'NONE', ( #133, #237, #213, #25 ) ) ;
#22 = DIRECTION ( 'NONE',  ( -1.000000000000000000, 0.000000000000000000, 0.000000000000000000 ) ) ;
#23 = EDGE_LOOP ( 'NONE', ( #142, #214, #7, #238 ) ) ;
#24 = VECTOR ( 'NONE', #85, 1000.000000000000000 ) ;
#25 = ORIENTED_EDGE ( 'NONE', *, *, #122, .F. ) ;
#26 = CC_DESIGN_DATE_AND_TIME_ASSIGNMENT ( #16, #64, ( #149 ) ) ;
#27 = CARTESIAN_POINT ( 'NONE',  ( 0.000000000000000000, 0.000000000000000000, 0.000000000000000000 ) ) ;
#28 = CARTESIAN_POINT ( 'NONE',  ( 5.100000000000001421, 6.245698675651502811E-16, 405.0000000000000000 ) ) ;
#29 =( GEOMETRIC_REPRESENTATION_CONTEXT ( 3 ) GLOBAL_UNCERTAINTY_ASSIGNED_CONTEXT ( ( #252 ) ) GLOBAL_UNIT_ASSIGNED_CONTEXT ( ( #41, #186, #268 ) ) REPRESENTATION_CONTEXT ( 'NONE', 'WORKASPACE' ) );
#30 = DIRECTION ( 'NONE',  ( -0.000000000000000000, -0.000000000000000000, -1.000000000000000000 ) ) ;
#31 = DIRECTION ( 'NONE',  ( -0.000000000000000000, -0.000000000000000000, -1.000000000000000000 ) ) ;
#32 = DIRECTION ( 'NONE',  ( 0.000000000000000000, 0.000000000000000000, 1.000000000000000000 ) ) ;
#33 = CIRCLE ( 'NONE', #113, 5.100000000000001421 ) ;
#34 = TOROIDAL_SURFACE ( 'NONE', #229, 5.300000000000000711, 0.2000000000000000111 ) ;
#35 = EDGE_CURVE ( 'NONE', #233, #119, #3, .T. ) ;
#36 = CARTESIAN_POINT ( 'NONE',  ( -5.300000000000000711, 6.490628035480972910E-16, 5.199999999999982414 ) ) ;
#37 = DIRECTION ( 'NONE',  ( 0.000000000000000000, 0.000000000000000000, 1.000000000000000000 ) ) ;
#38 = AXIS2_PLACEMENT_3D ( 'NONE', #215, #241, #305 ) ;
#39 = PERSON_AND_ORGANIZATION ( #139, #102 ) ;
#40 = EDGE_CURVE ( 'NONE', #196, #66, #297, .T. ) ;
#41 =( LENGTH_UNIT ( ) NAMED_UNIT ( * ) SI_UNIT ( .MILLI., .METRE. ) );
#42 = SECURITY_CLASSIFICATION_LEVEL ( 'unclassified' ) ;
#43 = VERTEX_POINT ( 'NONE', #259 ) ;
#44 = CC_DESIGN_PERSON_AND_ORGANIZATION_ASSIGNMENT ( #39, #185, ( #269 ) ) ;
#45 = AXIS2_PLACEMENT_3D ( 'NONE', #120, #218, #277 ) ;
#46 = DIRECTION ( 'NONE',  ( -0.000000000000000000, -0.000000000000000000, -1.000000000000000000 ) ) ;
#47 = CIRCLE ( 'NONE', #299, 5.100000000000001421 ) ;
#48 = DIRECTION ( 'NONE',  ( 1.000000000000000000, 0.000000000000000000, 0.000000000000000000 ) ) ;
#49 = ORIENTED_EDGE ( 'NONE', *, *, #40, .T. ) ;
#50 = CYLINDRICAL_SURFACE ( 'NONE', #168, 8.000000000000000000 ) ;
#51 = DIRECTION ( 'NONE',  ( -0.000000000000000000, -0.000000000000000000, -1.000000000000000000 ) ) ;
#52 = DIRECTION ( 'NONE',  ( 1.000000000000000000, 0.000000000000000000, 0.000000000000000000 ) ) ;
#53 = APPLICATION_CONTEXT ( 'configuration controlled 3d designs of mechanical parts and assemblies' ) ;
#54 = EDGE_CURVE ( 'NONE', #79, #189, #245, .T. ) ;
#55 = CIRCLE ( 'NONE', #184, 8.000000000000000000 ) ;
#56 = PLANE ( 'NONE',  #145 ) ;
#57 = FACE_OUTER_BOUND ( 'NONE', #154, .T. ) ;
#58 = LINE ( 'NONE', #272, #24 ) ;
#59 = AXIS2_PLACEMENT_3D ( 'NONE', #222, #266, #10 ) ;
#60 = FACE_BOUND ( 'NONE', #138, .T. ) ;
#61 = PERSON_AND_ORGANIZATION ( #139, #102 ) ;
#62 = CARTESIAN_POINT ( 'NONE',  ( 0.000000000000000000, 0.000000000000000000, 5.000000000000000000 ) ) ;
#63 = CIRCLE ( 'NONE', #273, 5.100000000000001421 ) ;
#64 = DATE_TIME_ROLE ( 'creation_date' ) ;
#65 = COORDINATED_UNIVERSAL_TIME_OFFSET ( 1, 0, .AHEAD. ) ;
#66 = VERTEX_POINT ( 'NONE', #282 ) ;
#67 = ORIENTED_EDGE ( 'NONE', *, *, #35, .F. ) ;
#68 = ADVANCED_FACE ( 'NONE', ( #141 ), #50, .T. ) ;
#69 = ORIENTED_EDGE ( 'NONE', *, *, #198, .T. ) ;
#70 = AXIS2_PLACEMENT_3D ( 'NONE', #286, #121, #81 ) ;
#71 = DATE_AND_TIME ( #280, #158 ) ;
#72 = FACE_OUTER_BOUND ( 'NONE', #19, .T. ) ;
#73 = PERSON_AND_ORGANIZATION ( #139, #102 ) ;
#74 = ORIENTED_EDGE ( 'NONE', *, *, #54, .T. ) ;
#75 = LOCAL_TIME ( 11, 52, 20.00000000000000000, #290 ) ;
#76 = CARTESIAN_POINT ( 'NONE',  ( -5.100000000000001421, 0.000000000000000000, 405.0000000000000000 ) ) ;
#77 = EDGE_CURVE ( 'NONE', #189, #79, #304, .T. ) ;
#78 = CARTESIAN_POINT ( 'NONE',  ( 5.300000000000000711, 0.000000000000000000, 4.999999999999991118 ) ) ;
#79 = VERTEX_POINT ( 'NONE', #96 ) ;
#80 = CIRCLE ( 'NONE', #124, 0.1999999999999996503 ) ;
#81 = DIRECTION ( 'NONE',  ( 0.000000000000000000, 0.000000000000000000, -1.000000000000000000 ) ) ;
#82 = ADVANCED_FACE ( 'NONE', ( #72 ), #173, .T. ) ;
#83 = APPROVAL_ROLE ( '' ) ;
#84 = ADVANCED_BREP_SHAPE_REPRESENTATION ( '33cb', ( #8, #4 ), #29 ) ;
#85 = DIRECTION ( 'NONE',  ( -0.000000000000000000, -0.000000000000000000, -1.000000000000000000 ) ) ;
#86 = AXIS2_PLACEMENT_3D ( 'NONE', #281, #262, #115 ) ;
#87 = APPROVAL_PERSON_ORGANIZATION ( #165, #285, #254 ) ;
#88 = EDGE_CURVE ( 'NONE', #197, #190, #153, .T. ) ;
#89 = CYLINDRICAL_SURFACE ( 'NONE', #151, 8.000000000000000000 ) ;
#90 = FACE_OUTER_BOUND ( 'NONE', #23, .T. ) ;
#91 = FACE_OUTER_BOUND ( 'NONE', #300, .T. ) ;
#92 = PERSON_AND_ORGANIZATION_ROLE ( 'classification_officer' ) ;
#93 = CARTESIAN_POINT ( 'NONE',  ( 0.000000000000000000, 0.000000000000000000, 5.199999999999982414 ) ) ;
#94 = CLOSED_SHELL ( 'NONE', ( #243, #209, #68, #234, #303, #111, #82, #205, #13 ) ) ;
#95 = CALENDAR_DATE ( 2022, 7, 7 ) ;
#96 = CARTESIAN_POINT ( 'NONE',  ( -5.300000000000000711, 6.490628035480971924E-16, 4.999999999999991118 ) ) ;
#97 = CC_DESIGN_APPROVAL ( #285, ( #235 ) ) ;
#98 = EDGE_CURVE ( 'NONE', #114, #190, #63, .T. ) ;
#99 = ORIENTED_EDGE ( 'NONE', *, *, #35, .T. ) ;
#100 = EDGE_LOOP ( 'NONE', ( #9, #199, #116, #207 ) ) ;
#101 = CARTESIAN_POINT ( 'NONE',  ( 0.000000000000000000, 0.000000000000000000, 5.199999999999982414 ) ) ;
#102 = ORGANIZATION ( 'NEURÈENÝ', 'NEURÈENÝ', '' ) ;
#103 = CARTESIAN_POINT ( 'NONE',  ( 0.000000000000000000, 0.000000000000000000, 0.000000000000000000 ) ) ;
#104 = ORIENTED_EDGE ( 'NONE', *, *, #219, .F. ) ;
#105 = VECTOR ( 'NONE', #51, 1000.000000000000000 ) ;
#106 = APPROVAL ( #289, 'NEURÈENÝ' ) ;
#107 = DIRECTION ( 'NONE',  ( 1.000000000000000000, 0.000000000000000000, 0.000000000000000000 ) ) ;
#108 = APPLICATION_PROTOCOL_DEFINITION ( 'international standard', 'config_control_design', 1994, #292 ) ;
#109 = CARTESIAN_POINT ( 'NONE',  ( 0.000000000000000000, 0.000000000000000000, 5.199999999999982414 ) ) ;
#110 = DIRECTION ( 'NONE',  ( -1.000000000000000000, 1.224646799147353454E-16, 0.000000000000000000 ) ) ;
#111 = ADVANCED_FACE ( 'NONE', ( #57 ), #56, .F. ) ;
#112 = DATE_AND_TIME ( #95, #258 ) ;
#113 = AXIS2_PLACEMENT_3D ( 'NONE', #220, #177, #242 ) ;
#114 = VERTEX_POINT ( 'NONE', #244 ) ;
#115 = DIRECTION ( 'NONE',  ( 1.000000000000000000, 0.000000000000000000, 0.000000000000000000 ) ) ;
#116 = ORIENTED_EDGE ( 'NONE', *, *, #131, .T. ) ;
#117 = CC_DESIGN_PERSON_AND_ORGANIZATION_ASSIGNMENT ( #212, #275, ( #271 ) ) ;
#118 = COORDINATED_UNIVERSAL_TIME_OFFSET ( 1, 0, .AHEAD. ) ;
#119 = VERTEX_POINT ( 'NONE', #175 ) ;
#120 = CARTESIAN_POINT ( 'NONE',  ( 0.000000000000000000, 0.000000000000000000, 0.000000000000000000 ) ) ;
#121 = DIRECTION ( 'NONE',  ( 0.000000000000000000, -1.000000000000000000, 0.000000000000000000 ) ) ;
#122 = EDGE_CURVE ( 'NONE', #43, #114, #263, .T. ) ;
#123 = FACE_OUTER_BOUND ( 'NONE', #21, .T. ) ;
#124 = AXIS2_PLACEMENT_3D ( 'NONE', #36, #17, #110 ) ;
#125 = DIRECTION ( 'NONE',  ( -1.000000000000000000, 0.000000000000000000, 0.000000000000000000 ) ) ;
#126 = DIRECTION ( 'NONE',  ( 0.000000000000000000, 0.000000000000000000, 1.000000000000000000 ) ) ;
#127 = AXIS2_PLACEMENT_3D ( 'NONE', #261, #283, #203 ) ;
#128 = CARTESIAN_POINT ( 'NONE',  ( 0.000000000000000000, 0.000000000000000000, 5.199999999999982414 ) ) ;
#129 = LOCAL_TIME ( 11, 52, 20.00000000000000000, #230 ) ;
#130 = DIRECTION ( 'NONE',  ( -0.000000000000000000, -0.000000000000000000, -1.000000000000000000 ) ) ;
#131 = EDGE_CURVE ( 'NONE', #196, #119, #148, .T. ) ;
#132 = ORIENTED_EDGE ( 'NONE', *, *, #131, .F. ) ;
#133 = ORIENTED_EDGE ( 'NONE', *, *, #152, .F. ) ;
#134 = AXIS2_PLACEMENT_3D ( 'NONE', #257, #46, #48 ) ;
#135 = DIRECTION ( 'NONE',  ( 1.000000000000000000, 0.000000000000000000, 0.000000000000000000 ) ) ;
#136 = EDGE_CURVE ( 'NONE', #190, #114, #47, .T. ) ;
#137 = SHAPE_DEFINITION_REPRESENTATION ( #179, #84 ) ;
#138 = EDGE_LOOP ( 'NONE', ( #193, #74 ) ) ;
#139 = PERSON ( 'NEURÈENÝ', 'NEURÈENÝ', 'NEURÈENÝ', ('NEURÈENÝ'), ('NEURÈENÝ'), ('NEURÈENÝ') ) ;
#140 = CIRCLE ( 'NONE', #70, 0.1999999999999996503 ) ;
#141 = FACE_OUTER_BOUND ( 'NONE', #225, .T. ) ;
#142 = ORIENTED_EDGE ( 'NONE', *, *, #98, .F. ) ;
#143 = ORIENTED_EDGE ( 'NONE', *, *, #287, .F. ) ;
#144 = VECTOR ( 'NONE', #31, 1000.000000000000000 ) ;
#145 = AXIS2_PLACEMENT_3D ( 'NONE', #103, #200, #176 ) ;
#146 = DIRECTION ( 'NONE',  ( -0.000000000000000000, -0.000000000000000000, -1.000000000000000000 ) ) ;
#147 = CIRCLE ( 'NONE', #20, 8.000000000000000000 ) ;
#148 = LINE ( 'NONE', #174, #306 ) ;
#149 = PRODUCT_DEFINITION ( 'NEZNÁMÝ', '', #271, #294 ) ;
#150 = DIRECTION ( 'NONE',  ( 1.000000000000000000, 0.000000000000000000, 0.000000000000000000 ) ) ;
#151 = AXIS2_PLACEMENT_3D ( 'NONE', #62, #130, #210 ) ;
#152 = EDGE_CURVE ( 'NONE', #197, #43, #33, .T. ) ;
#153 = LINE ( 'NONE', #247, #105 ) ;
#154 = EDGE_LOOP ( 'NONE', ( #167, #67 ) ) ;
#155 = DIRECTION ( 'NONE',  ( 0.000000000000000000, 0.000000000000000000, 1.000000000000000000 ) ) ;
#156 = FACE_OUTER_BOUND ( 'NONE', #171, .T. ) ;
#157 = EDGE_LOOP ( 'NONE', ( #69, #224 ) ) ;
#158 = LOCAL_TIME ( 11, 52, 20.00000000000000000, #188 ) ;
#159 = DIRECTION ( 'NONE',  ( 1.000000000000000000, 0.000000000000000000, 0.000000000000000000 ) ) ;
#160 = ORIENTED_EDGE ( 'NONE', *, *, #198, .F. ) ;
#161 = CALENDAR_DATE ( 2022, 7, 7 ) ;
#162 = DIRECTION ( 'NONE',  ( 0.000000000000000000, 0.000000000000000000, 1.000000000000000000 ) ) ;
#163 = AXIS2_PLACEMENT_3D ( 'NONE', #93, #217, #307 ) ;
#164 = EDGE_CURVE ( 'NONE', #119, #233, #147, .T. ) ;
#165 = PERSON_AND_ORGANIZATION ( #139, #102 ) ;
#166 = ORIENTED_EDGE ( 'NONE', *, *, #136, .F. ) ;
#167 = ORIENTED_EDGE ( 'NONE', *, *, #164, .F. ) ;
#168 = AXIS2_PLACEMENT_3D ( 'NONE', #236, #146, #22 ) ;
#169 = CC_DESIGN_DATE_AND_TIME_ASSIGNMENT ( #172, #232, ( #235 ) ) ;
#170 = CIRCLE ( 'NONE', #11, 5.100000000000001421 ) ;
#171 = EDGE_LOOP ( 'NONE', ( #49, #255 ) ) ;
#172 = DATE_AND_TIME ( #278, #253 ) ;
#173 = CYLINDRICAL_SURFACE ( 'NONE', #127, 5.100000000000001421 ) ;
#174 = CARTESIAN_POINT ( 'NONE',  ( -8.000000000000000000, 0.000000000000000000, 5.000000000000000000 ) ) ;
#175 = CARTESIAN_POINT ( 'NONE',  ( -8.000000000000000000, 0.000000000000000000, 0.000000000000000000 ) ) ;
#176 = DIRECTION ( 'NONE',  ( 1.000000000000000000, 0.000000000000000000, -0.000000000000000000 ) ) ;
#177 = DIRECTION ( 'NONE',  ( 0.000000000000000000, 0.000000000000000000, 1.000000000000000000 ) ) ;
#178 = APPROVAL_PERSON_ORGANIZATION ( #61, #106, #83 ) ;
#179 = PRODUCT_DEFINITION_SHAPE ( 'NONE', 'NONE',  #149 ) ;
#180 = CARTESIAN_POINT ( 'NONE',  ( 5.100000000000001421, 6.245698675651502811E-16, 5.199999999999982414 ) ) ;
#181 = PERSON_AND_ORGANIZATION ( #139, #102 ) ;
#182 = PLANE ( 'NONE',  #211 ) ;
#183 = EDGE_CURVE ( 'NONE', #190, #189, #140, .T. ) ;
#184 = AXIS2_PLACEMENT_3D ( 'NONE', #221, #6, #159 ) ;
#185 = PERSON_AND_ORGANIZATION_ROLE ( 'design_owner' ) ;
#186 =( NAMED_UNIT ( * ) PLANE_ANGLE_UNIT ( ) SI_UNIT ( $, .RADIAN. ) );
#187 = CC_DESIGN_SECURITY_CLASSIFICATION ( #235, ( #271 ) ) ;
#188 = COORDINATED_UNIVERSAL_TIME_OFFSET ( 1, 0, .AHEAD. ) ;
#189 = VERTEX_POINT ( 'NONE', #78 ) ;
#190 = VERTEX_POINT ( 'NONE', #180 ) ;
#191 = APPROVAL ( #192, 'NEURÈENÝ' ) ;
#192 = APPROVAL_STATUS ( 'not_yet_approved' ) ;
#193 = ORIENTED_EDGE ( 'NONE', *, *, #77, .T. ) ;
#194 = PERSON_AND_ORGANIZATION ( #139, #102 ) ;
#195 = APPROVAL_PERSON_ORGANIZATION ( #298, #191, #301 ) ;
#196 = VERTEX_POINT ( 'NONE', #267 ) ;
#197 = VERTEX_POINT ( 'NONE', #28 ) ;
#198 = EDGE_CURVE ( 'NONE', #43, #197, #170, .T. ) ;
#199 = ORIENTED_EDGE ( 'NONE', *, *, #40, .F. ) ;
#200 = DIRECTION ( 'NONE',  ( 0.000000000000000000, 0.000000000000000000, 1.000000000000000000 ) ) ;
#201 = CC_DESIGN_APPROVAL ( #191, ( #271 ) ) ;
#202 = CARTESIAN_POINT ( 'NONE',  ( 0.000000000000000000, 0.000000000000000000, 405.0000000000000000 ) ) ;
#203 = DIRECTION ( 'NONE',  ( -1.000000000000000000, 0.000000000000000000, 0.000000000000000000 ) ) ;
#204 = APPLICATION_PROTOCOL_DEFINITION ( 'international standard', 'config_control_design', 1994, #53 ) ;
#205 = ADVANCED_FACE ( 'NONE', ( #246 ), #2, .T. ) ;
#206 = CARTESIAN_POINT ( 'NONE',  ( 0.000000000000000000, 0.000000000000000000, 0.000000000000000000 ) ) ;
#207 = ORIENTED_EDGE ( 'NONE', *, *, #164, .T. ) ;
#208 = CALENDAR_DATE ( 2022, 7, 7 ) ;
#209 = ADVANCED_FACE ( 'NONE', ( #123 ), #5, .T. ) ;
#210 = DIRECTION ( 'NONE',  ( -1.000000000000000000, 0.000000000000000000, 0.000000000000000000 ) ) ;
#211 = AXIS2_PLACEMENT_3D ( 'NONE', #12, #162, #270 ) ;
#212 = PERSON_AND_ORGANIZATION ( #139, #102 ) ;
#213 = ORIENTED_EDGE ( 'NONE', *, *, #136, .T. ) ;
#214 = ORIENTED_EDGE ( 'NONE', *, *, #287, .T. ) ;
#215 = CARTESIAN_POINT ( 'NONE',  ( 0.000000000000000000, 0.000000000000000000, 5.000000000000000000 ) ) ;
#216 = APPROVAL_DATE_TIME ( #112, #285 ) ;
#217 = DIRECTION ( 'NONE',  ( 0.000000000000000000, 0.000000000000000000, 1.000000000000000000 ) ) ;
#218 = DIRECTION ( 'NONE',  ( 0.000000000000000000, 0.000000000000000000, 1.000000000000000000 ) ) ;
#219 = EDGE_CURVE ( 'NONE', #66, #196, #55, .T. ) ;
#220 = CARTESIAN_POINT ( 'NONE',  ( 0.000000000000000000, 0.000000000000000000, 405.0000000000000000 ) ) ;
#221 = CARTESIAN_POINT ( 'NONE',  ( 0.000000000000000000, 0.000000000000000000, 5.000000000000000000 ) ) ;
#222 = CARTESIAN_POINT ( 'NONE',  ( 0.000000000000000000, 0.000000000000000000, 405.0000000000000000 ) ) ;
#223 = DIRECTION ( 'NONE',  ( 1.000000000000000000, 0.000000000000000000, 0.000000000000000000 ) ) ;
#224 = ORIENTED_EDGE ( 'NONE', *, *, #152, .T. ) ;
#225 = EDGE_LOOP ( 'NONE', ( #104, #1, #99, #132 ) ) ;
#226 = DATE_AND_TIME ( #161, #75 ) ;
#227 = CC_DESIGN_PERSON_AND_ORGANIZATION_ASSIGNMENT ( #194, #92, ( #235 ) ) ;
#228 = ORIENTED_EDGE ( 'NONE', *, *, #122, .T. ) ;
#229 = AXIS2_PLACEMENT_3D ( 'NONE', #109, #295, #223 ) ;
#230 = COORDINATED_UNIVERSAL_TIME_OFFSET ( 1, 0, .AHEAD. ) ;
#231 = MECHANICAL_CONTEXT ( 'NONE', #292, 'mechanical' ) ;
#232 = DATE_TIME_ROLE ( 'classification_date' ) ;
#233 = VERTEX_POINT ( 'NONE', #296 ) ;
#234 = ADVANCED_FACE ( 'NONE', ( #251 ), #89, .T. ) ;
#235 = SECURITY_CLASSIFICATION ( '', '', #42 ) ;
#236 = CARTESIAN_POINT ( 'NONE',  ( 0.000000000000000000, 0.000000000000000000, 5.000000000000000000 ) ) ;
#237 = ORIENTED_EDGE ( 'NONE', *, *, #88, .T. ) ;
#238 = ORIENTED_EDGE ( 'NONE', *, *, #183, .F. ) ;
#239 = CC_DESIGN_PERSON_AND_ORGANIZATION_ASSIGNMENT ( #73, #256, ( #271 ) ) ;
#240 = CC_DESIGN_APPROVAL ( #106, ( #149 ) ) ;
#241 = DIRECTION ( 'NONE',  ( -0.000000000000000000, -0.000000000000000000, -1.000000000000000000 ) ) ;
#242 = DIRECTION ( 'NONE',  ( 1.000000000000000000, 0.000000000000000000, 0.000000000000000000 ) ) ;
#243 = ADVANCED_FACE ( 'NONE', ( #90 ), #34, .F. ) ;
#244 = CARTESIAN_POINT ( 'NONE',  ( -5.100000000000001421, 0.000000000000000000, 5.199999999999982414 ) ) ;
#245 = CIRCLE ( 'NONE', #134, 5.300000000000000711 ) ;
#246 = FACE_OUTER_BOUND ( 'NONE', #157, .T. ) ;
#247 = CARTESIAN_POINT ( 'NONE',  ( 5.100000000000001421, 6.245698675651502811E-16, 405.0000000000000000 ) ) ;
#248 = ORIENTED_EDGE ( 'NONE', *, *, #183, .T. ) ;
#249 = CARTESIAN_POINT ( 'NONE',  ( 0.000000000000000000, 0.000000000000000000, 405.0000000000000000 ) ) ;
#250 = ORIENTED_EDGE ( 'NONE', *, *, #98, .T. ) ;
#251 = FACE_OUTER_BOUND ( 'NONE', #100, .T. ) ;
#252 = UNCERTAINTY_MEASURE_WITH_UNIT (LENGTH_MEASURE( 1.000000000000000082E-05 ), #41, 'distance_accuracy_value', 'NONE');
#253 = LOCAL_TIME ( 11, 52, 20.00000000000000000, #65 ) ;
#254 = APPROVAL_ROLE ( '' ) ;
#255 = ORIENTED_EDGE ( 'NONE', *, *, #219, .T. ) ;
#256 = PERSON_AND_ORGANIZATION_ROLE ( 'creator' ) ;
#257 = CARTESIAN_POINT ( 'NONE',  ( 0.000000000000000000, 0.000000000000000000, 5.000000000000000000 ) ) ;
#258 = LOCAL_TIME ( 11, 52, 20.00000000000000000, #118 ) ;
#259 = CARTESIAN_POINT ( 'NONE',  ( -5.100000000000001421, 0.000000000000000000, 405.0000000000000000 ) ) ;
#260 = APPROVAL_STATUS ( 'not_yet_approved' ) ;
#261 = CARTESIAN_POINT ( 'NONE',  ( 0.000000000000000000, 0.000000000000000000, 405.0000000000000000 ) ) ;
#262 = DIRECTION ( 'NONE',  ( 0.000000000000000000, 0.000000000000000000, 1.000000000000000000 ) ) ;
#263 = LINE ( 'NONE', #76, #144 ) ;
#264 = DIRECTION ( 'NONE',  ( 1.000000000000000000, 0.000000000000000000, 0.000000000000000000 ) ) ;
#265 = EDGE_CURVE ( 'NONE', #66, #233, #58, .T. ) ;
#266 = DIRECTION ( 'NONE',  ( 0.000000000000000000, 0.000000000000000000, 1.000000000000000000 ) ) ;
#267 = CARTESIAN_POINT ( 'NONE',  ( -8.000000000000000000, 0.000000000000000000, 5.000000000000000000 ) ) ;
#268 =( NAMED_UNIT ( * ) SI_UNIT ( $, .STERADIAN. ) SOLID_ANGLE_UNIT ( ) );
#269 = PRODUCT ( '33cb', '33cb', '', ( #231 ) ) ;
#270 = DIRECTION ( 'NONE',  ( 1.000000000000000000, 0.000000000000000000, -0.000000000000000000 ) ) ;
#271 = PRODUCT_DEFINITION_FORMATION_WITH_SPECIFIED_SOURCE ( 'LIBOVOLNÝ', '', #269, .NOT_KNOWN. ) ;
#272 = CARTESIAN_POINT ( 'NONE',  ( 8.000000000000000000, 9.797174393178825657E-16, 5.000000000000000000 ) ) ;
#273 = AXIS2_PLACEMENT_3D ( 'NONE', #128, #284, #150 ) ;
#274 = APPROVAL_DATE_TIME ( #226, #106 ) ;
#275 = PERSON_AND_ORGANIZATION_ROLE ( 'design_supplier' ) ;
#276 = PRODUCT_RELATED_PRODUCT_CATEGORY ( 'detail', '', ( #269 ) ) ;
#277 = DIRECTION ( 'NONE',  ( 1.000000000000000000, 0.000000000000000000, 0.000000000000000000 ) ) ;
#278 = CALENDAR_DATE ( 2022, 7, 7 ) ;
#279 = ORIENTED_EDGE ( 'NONE', *, *, #54, .F. ) ;
#280 = CALENDAR_DATE ( 2022, 7, 7 ) ;
#281 = CARTESIAN_POINT ( 'NONE',  ( 0.000000000000000000, 0.000000000000000000, 5.000000000000000000 ) ) ;
#282 = CARTESIAN_POINT ( 'NONE',  ( 8.000000000000000000, 9.797174393178825657E-16, 5.000000000000000000 ) ) ;
#283 = DIRECTION ( 'NONE',  ( -0.000000000000000000, -0.000000000000000000, -1.000000000000000000 ) ) ;
#284 = DIRECTION ( 'NONE',  ( 0.000000000000000000, 0.000000000000000000, 1.000000000000000000 ) ) ;
#285 = APPROVAL ( #260, 'NEURÈENÝ' ) ;
#286 = CARTESIAN_POINT ( 'NONE',  ( 5.300000000000000711, 0.000000000000000000, 5.199999999999982414 ) ) ;
#287 = EDGE_CURVE ( 'NONE', #114, #79, #80, .T. ) ;
#288 = DIRECTION ( 'NONE',  ( -0.000000000000000000, -0.000000000000000000, -1.000000000000000000 ) ) ;
#289 = APPROVAL_STATUS ( 'not_yet_approved' ) ;
#290 = COORDINATED_UNIVERSAL_TIME_OFFSET ( 1, 0, .AHEAD. ) ;
#291 = CC_DESIGN_PERSON_AND_ORGANIZATION_ASSIGNMENT ( #181, #14, ( #149 ) ) ;
#292 = APPLICATION_CONTEXT ( 'configuration controlled 3d designs of mechanical parts and assemblies' ) ;
#293 = TOROIDAL_SURFACE ( 'NONE', #163, 5.300000000000000711, 0.2000000000000000111 ) ;
#294 = DESIGN_CONTEXT ( 'detailed design', #53, 'design' ) ;
#295 = DIRECTION ( 'NONE',  ( 0.000000000000000000, 0.000000000000000000, 1.000000000000000000 ) ) ;
#296 = CARTESIAN_POINT ( 'NONE',  ( 8.000000000000000000, 9.797174393178825657E-16, 0.000000000000000000 ) ) ;
#297 = CIRCLE ( 'NONE', #86, 8.000000000000000000 ) ;
#298 = PERSON_AND_ORGANIZATION ( #139, #102 ) ;
#299 = AXIS2_PLACEMENT_3D ( 'NONE', #101, #126, #52 ) ;
#300 = EDGE_LOOP ( 'NONE', ( #143, #166, #248, #279 ) ) ;
#301 = APPROVAL_ROLE ( '' ) ;
#302 = ORIENTED_EDGE ( 'NONE', *, *, #88, .F. ) ;
#303 = ADVANCED_FACE ( 'NONE', ( #60, #156 ), #182, .T. ) ;
#304 = CIRCLE ( 'NONE', #38, 5.300000000000000711 ) ;
#305 = DIRECTION ( 'NONE',  ( 1.000000000000000000, 0.000000000000000000, 0.000000000000000000 ) ) ;
#306 = VECTOR ( 'NONE', #288, 1000.000000000000000 ) ;
#307 = DIRECTION ( 'NONE',  ( 1.000000000000000000, 0.000000000000000000, 0.000000000000000000 ) ) ;
ENDSEC;
END-ISO-10303-21;
