ISO-10303-21;
HEADER;
FILE_DESCRIPTION (( 'STEP AP203' ),
    '1' );
FILE_NAME ('0903.STEP',
    '2022-07-07T10:01:06',
    ( '' ),
    ( '' ),
    'SwSTEP 2.0',
    'SolidWorks 2019',
    '' );
FILE_SCHEMA (( 'CONFIG_CONTROL_DESIGN' ));
ENDSEC;

DATA;
#1 = AXIS2_PLACEMENT_3D ( 'NONE', #52, #184, #212 ) ;
#2 = CIRCLE ( 'NONE', #268, 4.099999999999999645 ) ;
#3 = ADVANCED_FACE ( 'NONE', ( #159, #42 ), #255, .T. ) ;
#4 =( GEOMETRIC_REPRESENTATION_CONTEXT ( 3 ) GLOBAL_UNCERTAINTY_ASSIGNED_CONTEXT ( ( #146 ) ) GLOBAL_UNIT_ASSIGNED_CONTEXT ( ( #15, #132, #272 ) ) REPRESENTATION_CONTEXT ( 'NONE', 'WORKASPACE' ) );
#5 = APPROVAL_ROLE ( '' ) ;
#6 = AXIS2_PLACEMENT_3D ( 'NONE', #253, #225, #110 ) ;
#7 = DIRECTION ( 'NONE',  ( 0.000000000000000000, 0.000000000000000000, 1.000000000000000000 ) ) ;
#8 = CC_DESIGN_PERSON_AND_ORGANIZATION_ASSIGNMENT ( #197, #194, ( #168 ) ) ;
#9 = ADVANCED_FACE ( 'NONE', ( #156 ), #115, .T. ) ;
#10 = CYLINDRICAL_SURFACE ( 'NONE', #75, 4.099999999999999645 ) ;
#11 = COORDINATED_UNIVERSAL_TIME_OFFSET ( 1, 0, .AHEAD. ) ;
#12 = VERTEX_POINT ( 'NONE', #271 ) ;
#13 = APPLICATION_CONTEXT ( 'configuration controlled 3d designs of mechanical parts and assemblies' ) ;
#14 = DIRECTION ( 'NONE',  ( 0.000000000000000000, 0.000000000000000000, 1.000000000000000000 ) ) ;
#15 =( LENGTH_UNIT ( ) NAMED_UNIT ( * ) SI_UNIT ( .MILLI., .METRE. ) );
#16 = ORIENTED_EDGE ( 'NONE', *, *, #263, .F. ) ;
#17 = DIRECTION ( 'NONE',  ( 0.000000000000000000, 0.000000000000000000, 1.000000000000000000 ) ) ;
#18 = CC_DESIGN_PERSON_AND_ORGANIZATION_ASSIGNMENT ( #154, #176, ( #78 ) ) ;
#19 = CARTESIAN_POINT ( 'NONE',  ( 0.000000000000000000, 0.000000000000000000, 205.0000000000000284 ) ) ;
#20 = EDGE_LOOP ( 'NONE', ( #66, #155, #47, #114 ) ) ;
#21 = AXIS2_PLACEMENT_3D ( 'NONE', #51, #204, #25 ) ;
#22 = DIRECTION ( 'NONE',  ( -0.000000000000000000, -0.000000000000000000, -1.000000000000000000 ) ) ;
#23 = EDGE_LOOP ( 'NONE', ( #180, #205, #277, #208 ) ) ;
#24 = AXIS2_PLACEMENT_3D ( 'NONE', #96, #186, #108 ) ;
#25 = DIRECTION ( 'NONE',  ( 1.000000000000000000, 0.000000000000000000, 0.000000000000000000 ) ) ;
#26 = ORIENTED_EDGE ( 'NONE', *, *, #121, .T. ) ;
#27 = DIRECTION ( 'NONE',  ( 1.000000000000000000, 0.000000000000000000, 0.000000000000000000 ) ) ;
#28 = CIRCLE ( 'NONE', #30, 4.099999999999999645 ) ;
#29 = CC_DESIGN_DATE_AND_TIME_ASSIGNMENT ( #37, #105, ( #190 ) ) ;
#30 = AXIS2_PLACEMENT_3D ( 'NONE', #250, #298, #295 ) ;
#31 = SHAPE_DEFINITION_REPRESENTATION ( #124, #243 ) ;
#32 = ORGANIZATION ( 'NEURÈENÝ', 'NEURÈENÝ', '' ) ;
#33 = PERSON_AND_ORGANIZATION ( #173, #32 ) ;
#34 = VECTOR ( 'NONE', #162, 1000.000000000000000 ) ;
#35 = CALENDAR_DATE ( 2022, 7, 7 ) ;
#36 = CIRCLE ( 'NONE', #24, 4.299999999999998934 ) ;
#37 = DATE_AND_TIME ( #35, #127 ) ;
#38 = FACE_OUTER_BOUND ( 'NONE', #112, .T. ) ;
#39 = APPROVAL_PERSON_ORGANIZATION ( #220, #135, #5 ) ;
#40 = APPROVAL_STATUS ( 'not_yet_approved' ) ;
#41 = VERTEX_POINT ( 'NONE', #304 ) ;
#42 = FACE_OUTER_BOUND ( 'NONE', #303, .T. ) ;
#43 = PERSON_AND_ORGANIZATION ( #173, #32 ) ;
#44 = CC_DESIGN_PERSON_AND_ORGANIZATION_ASSIGNMENT ( #62, #293, ( #78 ) ) ;
#45 = CARTESIAN_POINT ( 'NONE',  ( -7.000000000000000000, 0.000000000000000000, 0.000000000000000000 ) ) ;
#46 = CARTESIAN_POINT ( 'NONE',  ( 4.299999999999998934, 0.000000000000000000, 5.000000000000005329 ) ) ;
#47 = ORIENTED_EDGE ( 'NONE', *, *, #100, .T. ) ;
#48 = DIRECTION ( 'NONE',  ( 0.000000000000000000, 0.000000000000000000, 1.000000000000000000 ) ) ;
#49 = EDGE_LOOP ( 'NONE', ( #260, #233 ) ) ;
#50 = VECTOR ( 'NONE', #85, 1000.000000000000000 ) ;
#51 = CARTESIAN_POINT ( 'NONE',  ( 0.000000000000000000, 0.000000000000000000, 5.000000000000000000 ) ) ;
#52 = CARTESIAN_POINT ( 'NONE',  ( 0.000000000000000000, 0.000000000000000000, 205.0000000000000284 ) ) ;
#53 = AXIS2_PLACEMENT_3D ( 'NONE', #229, #22, #187 ) ;
#54 = EDGE_CURVE ( 'NONE', #71, #87, #214, .T. ) ;
#55 = APPROVAL_ROLE ( '' ) ;
#56 = MECHANICAL_CONTEXT ( 'NONE', #285, 'mechanical' ) ;
#57 = APPROVAL_ROLE ( '' ) ;
#58 = LINE ( 'NONE', #199, #239 ) ;
#59 = DATE_AND_TIME ( #292, #202 ) ;
#60 = CARTESIAN_POINT ( 'NONE',  ( 0.000000000000000000, 0.000000000000000000, 0.000000000000000000 ) ) ;
#61 = LOCAL_TIME ( 12, 1, 6.000000000000000000, #129 ) ;
#62 = PERSON_AND_ORGANIZATION ( #173, #32 ) ;
#63 = EDGE_LOOP ( 'NONE', ( #223, #26, #230, #280 ) ) ;
#64 = EDGE_CURVE ( 'NONE', #117, #185, #305, .T. ) ;
#65 = CIRCLE ( 'NONE', #106, 4.299999999999998934 ) ;
#66 = ORIENTED_EDGE ( 'NONE', *, *, #107, .F. ) ;
#67 = CARTESIAN_POINT ( 'NONE',  ( -7.000000000000000000, 0.000000000000000000, 5.000000000000000000 ) ) ;
#68 = EDGE_LOOP ( 'NONE', ( #300, #284 ) ) ;
#69 = DIRECTION ( 'NONE',  ( -1.000000000000000000, 0.000000000000000000, 0.000000000000000000 ) ) ;
#70 = DIRECTION ( 'NONE',  ( 0.000000000000000000, 0.000000000000000000, 1.000000000000000000 ) ) ;
#71 = VERTEX_POINT ( 'NONE', #45 ) ;
#72 = LINE ( 'NONE', #153, #50 ) ;
#73 = DIRECTION ( 'NONE',  ( 1.224646799147353207E-16, 1.000000000000000000, -0.000000000000000000 ) ) ;
#74 = ORIENTED_EDGE ( 'NONE', *, *, #107, .T. ) ;
#75 = AXIS2_PLACEMENT_3D ( 'NONE', #301, #183, #69 ) ;
#76 = EDGE_CURVE ( 'NONE', #41, #235, #36, .T. ) ;
#77 = DIRECTION ( 'NONE',  ( 0.000000000000000000, 0.000000000000000000, 1.000000000000000000 ) ) ;
#78 = PRODUCT_DEFINITION_FORMATION_WITH_SPECIFIED_SOURCE ( 'LIBOVOLNÝ', '', #168, .NOT_KNOWN. ) ;
#79 = SECURITY_CLASSIFICATION ( '', '', #251 ) ;
#80 = AXIS2_PLACEMENT_3D ( 'NONE', #287, #306, #207 ) ;
#81 = CC_DESIGN_PERSON_AND_ORGANIZATION_ASSIGNMENT ( #244, #181, ( #190 ) ) ;
#82 = CC_DESIGN_PERSON_AND_ORGANIZATION_ASSIGNMENT ( #126, #84, ( #79 ) ) ;
#83 = APPLICATION_PROTOCOL_DEFINITION ( 'international standard', 'config_control_design', 1994, #285 ) ;
#84 = PERSON_AND_ORGANIZATION_ROLE ( 'classification_officer' ) ;
#85 = DIRECTION ( 'NONE',  ( -0.000000000000000000, -0.000000000000000000, -1.000000000000000000 ) ) ;
#86 = EDGE_CURVE ( 'NONE', #252, #227, #2, .T. ) ;
#87 = VERTEX_POINT ( 'NONE', #196 ) ;
#88 = DIRECTION ( 'NONE',  ( -0.000000000000000000, -0.000000000000000000, -1.000000000000000000 ) ) ;
#89 = AXIS2_PLACEMENT_3D ( 'NONE', #299, #172, #226 ) ;
#90 = CALENDAR_DATE ( 2022, 7, 7 ) ;
#91 = ORIENTED_EDGE ( 'NONE', *, *, #76, .T. ) ;
#92 = CARTESIAN_POINT ( 'NONE',  ( 4.099999999999999645, 5.021051876504147385E-16, 205.0000000000000284 ) ) ;
#93 = DIRECTION ( 'NONE',  ( 0.000000000000000000, 0.000000000000000000, 1.000000000000000000 ) ) ;
#94 = EDGE_LOOP ( 'NONE', ( #198, #91 ) ) ;
#95 = AXIS2_PLACEMENT_3D ( 'NONE', #206, #88, #128 ) ;
#96 = CARTESIAN_POINT ( 'NONE',  ( 0.000000000000000000, 0.000000000000000000, 5.000000000000000000 ) ) ;
#97 = CARTESIAN_POINT ( 'NONE',  ( 4.299999999999998934, 0.000000000000000000, 5.200000000000009948 ) ) ;
#98 = ORIENTED_EDGE ( 'NONE', *, *, #121, .F. ) ;
#99 = FACE_OUTER_BOUND ( 'NONE', #20, .T. ) ;
#100 = EDGE_CURVE ( 'NONE', #117, #227, #72, .T. ) ;
#101 = EDGE_CURVE ( 'NONE', #227, #252, #28, .T. ) ;
#102 = LOCAL_TIME ( 12, 1, 6.000000000000000000, #218 ) ;
#103 = AXIS2_PLACEMENT_3D ( 'NONE', #137, #73, #118 ) ;
#104 = APPLICATION_PROTOCOL_DEFINITION ( 'international standard', 'config_control_design', 1994, #13 ) ;
#105 = DATE_TIME_ROLE ( 'creation_date' ) ;
#106 = AXIS2_PLACEMENT_3D ( 'NONE', #231, #276, #116 ) ;
#107 = EDGE_CURVE ( 'NONE', #185, #252, #245, .T. ) ;
#108 = DIRECTION ( 'NONE',  ( 1.000000000000000000, 0.000000000000000000, 0.000000000000000000 ) ) ;
#109 = CARTESIAN_POINT ( 'NONE',  ( 0.000000000000000000, 0.000000000000000000, 0.000000000000000000 ) ) ;
#110 = DIRECTION ( 'NONE',  ( 1.000000000000000000, 0.000000000000000000, -0.000000000000000000 ) ) ;
#111 = VERTEX_POINT ( 'NONE', #175 ) ;
#112 = EDGE_LOOP ( 'NONE', ( #177, #201, #257, #182 ) ) ;
#113 = CARTESIAN_POINT ( 'NONE',  ( 4.099999999999999645, 5.021051876504147385E-16, 5.200000000000009948 ) ) ;
#114 = ORIENTED_EDGE ( 'NONE', *, *, #101, .T. ) ;
#115 = CYLINDRICAL_SURFACE ( 'NONE', #95, 7.000000000000000000 ) ;
#116 = DIRECTION ( 'NONE',  ( 1.000000000000000000, 0.000000000000000000, 0.000000000000000000 ) ) ;
#117 = VERTEX_POINT ( 'NONE', #131 ) ;
#118 = DIRECTION ( 'NONE',  ( -1.000000000000000000, 1.224646799147353454E-16, 0.000000000000000000 ) ) ;
#119 = CC_DESIGN_SECURITY_CLASSIFICATION ( #79, ( #78 ) ) ;
#120 = LINE ( 'NONE', #67, #139 ) ;
#121 = EDGE_CURVE ( 'NONE', #111, #87, #58, .T. ) ;
#122 = ADVANCED_FACE ( 'NONE', ( #38 ), #150, .F. ) ;
#123 = CIRCLE ( 'NONE', #144, 7.000000000000000000 ) ;
#124 = PRODUCT_DEFINITION_SHAPE ( 'NONE', 'NONE',  #190 ) ;
#125 = APPROVAL_DATE_TIME ( #195, #213 ) ;
#126 = PERSON_AND_ORGANIZATION ( #173, #32 ) ;
#127 = LOCAL_TIME ( 12, 1, 6.000000000000000000, #296 ) ;
#128 = DIRECTION ( 'NONE',  ( -1.000000000000000000, 0.000000000000000000, 0.000000000000000000 ) ) ;
#129 = COORDINATED_UNIVERSAL_TIME_OFFSET ( 1, 0, .AHEAD. ) ;
#130 = ORIENTED_EDGE ( 'NONE', *, *, #263, .T. ) ;
#131 = CARTESIAN_POINT ( 'NONE',  ( -4.099999999999999645, 0.000000000000000000, 205.0000000000000284 ) ) ;
#132 =( NAMED_UNIT ( * ) PLANE_ANGLE_UNIT ( ) SI_UNIT ( $, .RADIAN. ) );
#133 = DIRECTION ( 'NONE',  ( 1.000000000000000000, 0.000000000000000000, 0.000000000000000000 ) ) ;
#134 = CYLINDRICAL_SURFACE ( 'NONE', #53, 4.099999999999999645 ) ;
#135 = APPROVAL ( #40, 'NEURÈENÝ' ) ;
#136 = CARTESIAN_POINT ( 'NONE',  ( 0.000000000000000000, 0.000000000000000000, 205.0000000000000284 ) ) ;
#137 = CARTESIAN_POINT ( 'NONE',  ( -4.299999999999998934, 5.265981236333617484E-16, 5.200000000000009948 ) ) ;
#138 = ORIENTED_EDGE ( 'NONE', *, *, #54, .T. ) ;
#139 = VECTOR ( 'NONE', #142, 1000.000000000000000 ) ;
#140 = PLANE ( 'NONE',  #248 ) ;
#141 = EDGE_LOOP ( 'NONE', ( #98, #16, #161, #138 ) ) ;
#142 = DIRECTION ( 'NONE',  ( -0.000000000000000000, -0.000000000000000000, -1.000000000000000000 ) ) ;
#143 = ADVANCED_FACE ( 'NONE', ( #228 ), #10, .T. ) ;
#144 = AXIS2_PLACEMENT_3D ( 'NONE', #236, #70, #27 ) ;
#145 = CIRCLE ( 'NONE', #264, 0.1999999999999996503 ) ;
#146 = UNCERTAINTY_MEASURE_WITH_UNIT (LENGTH_MEASURE( 1.000000000000000082E-05 ), #15, 'distance_accuracy_value', 'NONE');
#147 = CLOSED_SHELL ( 'NONE', ( #122, #143, #247, #9, #3, #288, #240, #238, #294 ) ) ;
#148 = AXIS2_PLACEMENT_3D ( 'NONE', #19, #77, #160 ) ;
#149 = EDGE_CURVE ( 'NONE', #235, #41, #65, .T. ) ;
#150 = TOROIDAL_SURFACE ( 'NONE', #192, 4.299999999999998934, 0.2000000000000000111 ) ;
#151 = DIRECTION ( 'NONE',  ( 1.000000000000000000, 0.000000000000000000, 0.000000000000000000 ) ) ;
#152 = CC_DESIGN_APPROVAL ( #213, ( #79 ) ) ;
#153 = CARTESIAN_POINT ( 'NONE',  ( -4.099999999999999645, 0.000000000000000000, 205.0000000000000284 ) ) ;
#154 = PERSON_AND_ORGANIZATION ( #173, #32 ) ;
#155 = ORIENTED_EDGE ( 'NONE', *, *, #64, .F. ) ;
#156 = FACE_OUTER_BOUND ( 'NONE', #141, .T. ) ;
#157 = DIRECTION ( 'NONE',  ( 0.000000000000000000, -1.000000000000000000, 0.000000000000000000 ) ) ;
#158 = ORIENTED_EDGE ( 'NONE', *, *, #191, .F. ) ;
#159 = FACE_BOUND ( 'NONE', #94, .T. ) ;
#160 = DIRECTION ( 'NONE',  ( 1.000000000000000000, 0.000000000000000000, 0.000000000000000000 ) ) ;
#161 = ORIENTED_EDGE ( 'NONE', *, *, #171, .T. ) ;
#162 = DIRECTION ( 'NONE',  ( -0.000000000000000000, -0.000000000000000000, -1.000000000000000000 ) ) ;
#163 = CYLINDRICAL_SURFACE ( 'NONE', #215, 7.000000000000000000 ) ;
#164 = EDGE_CURVE ( 'NONE', #111, #12, #170, .T. ) ;
#165 = CARTESIAN_POINT ( 'NONE',  ( -4.099999999999999645, 0.000000000000000000, 5.200000000000009948 ) ) ;
#166 = EDGE_CURVE ( 'NONE', #227, #41, #249, .T. ) ;
#167 = AXIS2_PLACEMENT_3D ( 'NONE', #136, #14, #151 ) ;
#168 = PRODUCT ( '0903', '0903', '', ( #56 ) ) ;
#169 = CC_DESIGN_APPROVAL ( #281, ( #78 ) ) ;
#170 = CIRCLE ( 'NONE', #80, 7.000000000000000000 ) ;
#171 = EDGE_CURVE ( 'NONE', #12, #71, #120, .T. ) ;
#172 = DIRECTION ( 'NONE',  ( 0.000000000000000000, 0.000000000000000000, 1.000000000000000000 ) ) ;
#173 = PERSON ( 'NEURÈENÝ', 'NEURÈENÝ', 'NEURÈENÝ', ('NEURÈENÝ'), ('NEURÈENÝ'), ('NEURÈENÝ') ) ;
#174 = DATE_TIME_ROLE ( 'classification_date' ) ;
#175 = CARTESIAN_POINT ( 'NONE',  ( 7.000000000000000000, 8.572527594031473190E-16, 5.000000000000000000 ) ) ;
#176 = PERSON_AND_ORGANIZATION_ROLE ( 'design_supplier' ) ;
#177 = ORIENTED_EDGE ( 'NONE', *, *, #101, .F. ) ;
#178 = EDGE_LOOP ( 'NONE', ( #158, #74, #188, #273 ) ) ;
#179 = LOCAL_TIME ( 12, 1, 6.000000000000000000, #11 ) ;
#180 = ORIENTED_EDGE ( 'NONE', *, *, #166, .F. ) ;
#181 = PERSON_AND_ORGANIZATION_ROLE ( 'creator' ) ;
#182 = ORIENTED_EDGE ( 'NONE', *, *, #224, .F. ) ;
#183 = DIRECTION ( 'NONE',  ( -0.000000000000000000, -0.000000000000000000, -1.000000000000000000 ) ) ;
#184 = DIRECTION ( 'NONE',  ( 0.000000000000000000, 0.000000000000000000, 1.000000000000000000 ) ) ;
#185 = VERTEX_POINT ( 'NONE', #261 ) ;
#186 = DIRECTION ( 'NONE',  ( -0.000000000000000000, -0.000000000000000000, -1.000000000000000000 ) ) ;
#187 = DIRECTION ( 'NONE',  ( -1.000000000000000000, 0.000000000000000000, 0.000000000000000000 ) ) ;
#188 = ORIENTED_EDGE ( 'NONE', *, *, #86, .T. ) ;
#189 = FACE_OUTER_BOUND ( 'NONE', #23, .T. ) ;
#190 = PRODUCT_DEFINITION ( 'NEZNÁMÝ', '', #78, #211 ) ;
#191 = EDGE_CURVE ( 'NONE', #185, #117, #286, .T. ) ;
#192 = AXIS2_PLACEMENT_3D ( 'NONE', #221, #17, #203 ) ;
#193 = DATE_AND_TIME ( #217, #61 ) ;
#194 = PERSON_AND_ORGANIZATION_ROLE ( 'design_owner' ) ;
#195 = DATE_AND_TIME ( #216, #102 ) ;
#196 = CARTESIAN_POINT ( 'NONE',  ( 7.000000000000000000, 8.572527594031473190E-16, 0.000000000000000000 ) ) ;
#197 = PERSON_AND_ORGANIZATION ( #173, #32 ) ;
#198 = ORIENTED_EDGE ( 'NONE', *, *, #149, .T. ) ;
#199 = CARTESIAN_POINT ( 'NONE',  ( 7.000000000000000000, 8.572527594031473190E-16, 5.000000000000000000 ) ) ;
#200 = DATE_AND_TIME ( #90, #179 ) ;
#201 = ORIENTED_EDGE ( 'NONE', *, *, #166, .T. ) ;
#202 = LOCAL_TIME ( 12, 1, 6.000000000000000000, #219 ) ;
#203 = DIRECTION ( 'NONE',  ( 1.000000000000000000, 0.000000000000000000, 0.000000000000000000 ) ) ;
#204 = DIRECTION ( 'NONE',  ( 0.000000000000000000, 0.000000000000000000, 1.000000000000000000 ) ) ;
#205 = ORIENTED_EDGE ( 'NONE', *, *, #86, .F. ) ;
#206 = CARTESIAN_POINT ( 'NONE',  ( 0.000000000000000000, 0.000000000000000000, 5.000000000000000000 ) ) ;
#207 = DIRECTION ( 'NONE',  ( 1.000000000000000000, 0.000000000000000000, 0.000000000000000000 ) ) ;
#208 = ORIENTED_EDGE ( 'NONE', *, *, #76, .F. ) ;
#209 = DIRECTION ( 'NONE',  ( 1.000000000000000000, 0.000000000000000000, -0.000000000000000000 ) ) ;
#210 = TOROIDAL_SURFACE ( 'NONE', #89, 4.299999999999998934, 0.2000000000000000111 ) ;
#211 = DESIGN_CONTEXT ( 'detailed design', #13, 'design' ) ;
#212 = DIRECTION ( 'NONE',  ( 1.000000000000000000, 0.000000000000000000, -0.000000000000000000 ) ) ;
#213 = APPROVAL ( #269, 'NEURÈENÝ' ) ;
#214 = CIRCLE ( 'NONE', #265, 7.000000000000000000 ) ;
#215 = AXIS2_PLACEMENT_3D ( 'NONE', #256, #259, #279 ) ;
#216 = CALENDAR_DATE ( 2022, 7, 7 ) ;
#217 = CALENDAR_DATE ( 2022, 7, 7 ) ;
#218 = COORDINATED_UNIVERSAL_TIME_OFFSET ( 1, 0, .AHEAD. ) ;
#219 = COORDINATED_UNIVERSAL_TIME_OFFSET ( 1, 0, .AHEAD. ) ;
#220 = PERSON_AND_ORGANIZATION ( #173, #32 ) ;
#221 = CARTESIAN_POINT ( 'NONE',  ( 0.000000000000000000, 0.000000000000000000, 5.200000000000009948 ) ) ;
#222 = APPROVAL_DATE_TIME ( #193, #281 ) ;
#223 = ORIENTED_EDGE ( 'NONE', *, *, #164, .F. ) ;
#224 = EDGE_CURVE ( 'NONE', #252, #235, #145, .T. ) ;
#225 = DIRECTION ( 'NONE',  ( 0.000000000000000000, 0.000000000000000000, 1.000000000000000000 ) ) ;
#226 = DIRECTION ( 'NONE',  ( 1.000000000000000000, 0.000000000000000000, 0.000000000000000000 ) ) ;
#227 = VERTEX_POINT ( 'NONE', #165 ) ;
#228 = FACE_OUTER_BOUND ( 'NONE', #178, .T. ) ;
#229 = CARTESIAN_POINT ( 'NONE',  ( 0.000000000000000000, 0.000000000000000000, 205.0000000000000284 ) ) ;
#230 = ORIENTED_EDGE ( 'NONE', *, *, #290, .T. ) ;
#231 = CARTESIAN_POINT ( 'NONE',  ( 0.000000000000000000, 0.000000000000000000, 5.000000000000000000 ) ) ;
#232 = PLANE ( 'NONE',  #1 ) ;
#233 = ORIENTED_EDGE ( 'NONE', *, *, #290, .F. ) ;
#234 = CARTESIAN_POINT ( 'NONE',  ( 0.000000000000000000, 0.000000000000000000, 0.000000000000000000 ) ) ;
#235 = VERTEX_POINT ( 'NONE', #46 ) ;
#236 = CARTESIAN_POINT ( 'NONE',  ( 0.000000000000000000, 0.000000000000000000, 0.000000000000000000 ) ) ;
#237 = APPROVAL_PERSON_ORGANIZATION ( #33, #281, #55 ) ;
#238 = ADVANCED_FACE ( 'NONE', ( #307 ), #232, .T. ) ;
#239 = VECTOR ( 'NONE', #278, 1000.000000000000000 ) ;
#240 = ADVANCED_FACE ( 'NONE', ( #99 ), #134, .T. ) ;
#241 = APPROVAL_PERSON_ORGANIZATION ( #43, #213, #57 ) ;
#242 = DIRECTION ( 'NONE',  ( 1.000000000000000000, 0.000000000000000000, 0.000000000000000000 ) ) ;
#243 = ADVANCED_BREP_SHAPE_REPRESENTATION ( '0903', ( #258, #289 ), #4 ) ;
#244 = PERSON_AND_ORGANIZATION ( #173, #32 ) ;
#245 = LINE ( 'NONE', #92, #34 ) ;
#246 = APPROVAL_DATE_TIME ( #200, #135 ) ;
#247 = ADVANCED_FACE ( 'NONE', ( #283 ), #163, .T. ) ;
#248 = AXIS2_PLACEMENT_3D ( 'NONE', #234, #93, #209 ) ;
#249 = CIRCLE ( 'NONE', #103, 0.1999999999999996503 ) ;
#250 = CARTESIAN_POINT ( 'NONE',  ( 0.000000000000000000, 0.000000000000000000, 5.200000000000009948 ) ) ;
#251 = SECURITY_CLASSIFICATION_LEVEL ( 'unclassified' ) ;
#252 = VERTEX_POINT ( 'NONE', #113 ) ;
#253 = CARTESIAN_POINT ( 'NONE',  ( 0.000000000000000000, 0.000000000000000000, 5.000000000000000000 ) ) ;
#254 = DIRECTION ( 'NONE',  ( 0.000000000000000000, 0.000000000000000000, -1.000000000000000000 ) ) ;
#255 = PLANE ( 'NONE',  #6 ) ;
#256 = CARTESIAN_POINT ( 'NONE',  ( 0.000000000000000000, 0.000000000000000000, 5.000000000000000000 ) ) ;
#257 = ORIENTED_EDGE ( 'NONE', *, *, #149, .F. ) ;
#258 = MANIFOLD_SOLID_BREP ( 'Zaoblit1', #147 ) ;
#259 = DIRECTION ( 'NONE',  ( -0.000000000000000000, -0.000000000000000000, -1.000000000000000000 ) ) ;
#260 = ORIENTED_EDGE ( 'NONE', *, *, #54, .F. ) ;
#261 = CARTESIAN_POINT ( 'NONE',  ( 4.099999999999999645, 5.021051876504147385E-16, 205.0000000000000284 ) ) ;
#262 = PRODUCT_RELATED_PRODUCT_CATEGORY ( 'detail', '', ( #168 ) ) ;
#263 = EDGE_CURVE ( 'NONE', #12, #111, #274, .T. ) ;
#264 = AXIS2_PLACEMENT_3D ( 'NONE', #97, #157, #254 ) ;
#265 = AXIS2_PLACEMENT_3D ( 'NONE', #60, #270, #275 ) ;
#266 = CC_DESIGN_APPROVAL ( #135, ( #190 ) ) ;
#267 = CC_DESIGN_DATE_AND_TIME_ASSIGNMENT ( #59, #174, ( #79 ) ) ;
#268 = AXIS2_PLACEMENT_3D ( 'NONE', #282, #48, #133 ) ;
#269 = APPROVAL_STATUS ( 'not_yet_approved' ) ;
#270 = DIRECTION ( 'NONE',  ( 0.000000000000000000, 0.000000000000000000, 1.000000000000000000 ) ) ;
#271 = CARTESIAN_POINT ( 'NONE',  ( -7.000000000000000000, 0.000000000000000000, 5.000000000000000000 ) ) ;
#272 =( NAMED_UNIT ( * ) SI_UNIT ( $, .STERADIAN. ) SOLID_ANGLE_UNIT ( ) );
#273 = ORIENTED_EDGE ( 'NONE', *, *, #100, .F. ) ;
#274 = CIRCLE ( 'NONE', #21, 7.000000000000000000 ) ;
#275 = DIRECTION ( 'NONE',  ( 1.000000000000000000, 0.000000000000000000, 0.000000000000000000 ) ) ;
#276 = DIRECTION ( 'NONE',  ( -0.000000000000000000, -0.000000000000000000, -1.000000000000000000 ) ) ;
#277 = ORIENTED_EDGE ( 'NONE', *, *, #224, .T. ) ;
#278 = DIRECTION ( 'NONE',  ( -0.000000000000000000, -0.000000000000000000, -1.000000000000000000 ) ) ;
#279 = DIRECTION ( 'NONE',  ( -1.000000000000000000, 0.000000000000000000, 0.000000000000000000 ) ) ;
#280 = ORIENTED_EDGE ( 'NONE', *, *, #171, .F. ) ;
#281 = APPROVAL ( #291, 'NEURÈENÝ' ) ;
#282 = CARTESIAN_POINT ( 'NONE',  ( 0.000000000000000000, 0.000000000000000000, 5.200000000000009948 ) ) ;
#283 = FACE_OUTER_BOUND ( 'NONE', #63, .T. ) ;
#284 = ORIENTED_EDGE ( 'NONE', *, *, #191, .T. ) ;
#285 = APPLICATION_CONTEXT ( 'configuration controlled 3d designs of mechanical parts and assemblies' ) ;
#286 = CIRCLE ( 'NONE', #148, 4.099999999999999645 ) ;
#287 = CARTESIAN_POINT ( 'NONE',  ( 0.000000000000000000, 0.000000000000000000, 5.000000000000000000 ) ) ;
#288 = ADVANCED_FACE ( 'NONE', ( #302 ), #140, .F. ) ;
#289 = AXIS2_PLACEMENT_3D ( 'NONE', #109, #7, #242 ) ;
#290 = EDGE_CURVE ( 'NONE', #87, #71, #123, .T. ) ;
#291 = APPROVAL_STATUS ( 'not_yet_approved' ) ;
#292 = CALENDAR_DATE ( 2022, 7, 7 ) ;
#293 = PERSON_AND_ORGANIZATION_ROLE ( 'creator' ) ;
#294 = ADVANCED_FACE ( 'NONE', ( #189 ), #210, .F. ) ;
#295 = DIRECTION ( 'NONE',  ( 1.000000000000000000, 0.000000000000000000, 0.000000000000000000 ) ) ;
#296 = COORDINATED_UNIVERSAL_TIME_OFFSET ( 1, 0, .AHEAD. ) ;
#297 = ORIENTED_EDGE ( 'NONE', *, *, #164, .T. ) ;
#298 = DIRECTION ( 'NONE',  ( 0.000000000000000000, 0.000000000000000000, 1.000000000000000000 ) ) ;
#299 = CARTESIAN_POINT ( 'NONE',  ( 0.000000000000000000, 0.000000000000000000, 5.200000000000009948 ) ) ;
#300 = ORIENTED_EDGE ( 'NONE', *, *, #64, .T. ) ;
#301 = CARTESIAN_POINT ( 'NONE',  ( 0.000000000000000000, 0.000000000000000000, 205.0000000000000284 ) ) ;
#302 = FACE_OUTER_BOUND ( 'NONE', #49, .T. ) ;
#303 = EDGE_LOOP ( 'NONE', ( #130, #297 ) ) ;
#304 = CARTESIAN_POINT ( 'NONE',  ( -4.299999999999998934, 5.265981236333617484E-16, 5.000000000000005329 ) ) ;
#305 = CIRCLE ( 'NONE', #167, 4.099999999999999645 ) ;
#306 = DIRECTION ( 'NONE',  ( 0.000000000000000000, 0.000000000000000000, 1.000000000000000000 ) ) ;
#307 = FACE_OUTER_BOUND ( 'NONE', #68, .T. ) ;
ENDSEC;
END-ISO-10303-21;
