ISO-10303-21;
HEADER;
FILE_DESCRIPTION (( 'STEP AP203' ),
    '1' );
FILE_NAME ('9dd4.STEP',
    '2022-07-07T10:18:24',
    ( '' ),
    ( '' ),
    'SwSTEP 2.0',
    'SolidWorks 2019',
    '' );
FILE_SCHEMA (( 'CONFIG_CONTROL_DESIGN' ));
ENDSEC;

DATA;
#1 = AXIS2_PLACEMENT_3D ( 'NONE', #279, #122, #234 ) ;
#2 = CIRCLE ( 'NONE', #174, 0.2000000000000000944 ) ;
#3 = DIRECTION ( 'NONE',  ( -0.000000000000000000, -0.000000000000000000, -1.000000000000000000 ) ) ;
#4 = PRODUCT_RELATED_PRODUCT_CATEGORY ( 'detail', '', ( #271 ) ) ;
#5 = CARTESIAN_POINT ( 'NONE',  ( 0.000000000000000000, 0.000000000000000000, 3.000000000000000000 ) ) ;
#6 = APPROVAL_STATUS ( 'not_yet_approved' ) ;
#7 = EDGE_LOOP ( 'NONE', ( #252, #111, #61, #137 ) ) ;
#8 = ORGANIZATION ( 'NEURÈENÝ', 'NEURÈENÝ', '' ) ;
#9 = APPROVAL_STATUS ( 'not_yet_approved' ) ;
#10 = ORIENTED_EDGE ( 'NONE', *, *, #130, .T. ) ;
#11 = ORIENTED_EDGE ( 'NONE', *, *, #97, .T. ) ;
#12 = CC_DESIGN_DATE_AND_TIME_ASSIGNMENT ( #244, #177, ( #260 ) ) ;
#13 = COORDINATED_UNIVERSAL_TIME_OFFSET ( 1, 0, .AHEAD. ) ;
#14 = ORIENTED_EDGE ( 'NONE', *, *, #100, .T. ) ;
#15 = AXIS2_PLACEMENT_3D ( 'NONE', #164, #256, #90 ) ;
#16 = AXIS2_PLACEMENT_3D ( 'NONE', #30, #104, #149 ) ;
#17 = EDGE_CURVE ( 'NONE', #69, #218, #295, .T. ) ;
#18 = PLANE ( 'NONE',  #26 ) ;
#19 = DIRECTION ( 'NONE',  ( -0.000000000000000000, -0.000000000000000000, -1.000000000000000000 ) ) ;
#20 = CC_DESIGN_APPROVAL ( #143, ( #274 ) ) ;
#21 = DIRECTION ( 'NONE',  ( 1.000000000000000000, 0.000000000000000000, -0.000000000000000000 ) ) ;
#22 = SHAPE_DEFINITION_REPRESENTATION ( #277, #181 ) ;
#23 = EDGE_LOOP ( 'NONE', ( #155, #254, #278, #183 ) ) ;
#24 = APPLICATION_CONTEXT ( 'configuration controlled 3d designs of mechanical parts and assemblies' ) ;
#25 = ORIENTED_EDGE ( 'NONE', *, *, #163, .F. ) ;
#26 = AXIS2_PLACEMENT_3D ( 'NONE', #204, #66, #48 ) ;
#27 = CARTESIAN_POINT ( 'NONE',  ( 5.000000000000000000, 6.123233995736766282E-16, 0.000000000000000000 ) ) ;
#28 = ADVANCED_FACE ( 'NONE', ( #208 ), #162, .T. ) ;
#29 = DIRECTION ( 'NONE',  ( -1.000000000000000000, 1.224646799147353207E-16, 0.000000000000000000 ) ) ;
#30 = CARTESIAN_POINT ( 'NONE',  ( 0.000000000000000000, 0.000000000000000000, 3.000000000000000000 ) ) ;
#31 = LOCAL_TIME ( 12, 18, 24.00000000000000000, #265 ) ;
#32 = DIRECTION ( 'NONE',  ( -1.000000000000000000, 0.000000000000000000, 0.000000000000000000 ) ) ;
#33 = LINE ( 'NONE', #129, #108 ) ;
#34 =( NAMED_UNIT ( * ) PLANE_ANGLE_UNIT ( ) SI_UNIT ( $, .RADIAN. ) );
#35 = EDGE_LOOP ( 'NONE', ( #113, #270 ) ) ;
#36 = PERSON_AND_ORGANIZATION ( #89, #8 ) ;
#37 = CC_DESIGN_SECURITY_CLASSIFICATION ( #260, ( #274 ) ) ;
#38 = PERSON_AND_ORGANIZATION_ROLE ( 'design_supplier' ) ;
#39 = APPROVAL ( #64, 'NEURÈENÝ' ) ;
#40 = MANIFOLD_SOLID_BREP ( 'Zaoblit1', #80 ) ;
#41 = PERSON_AND_ORGANIZATION ( #89, #8 ) ;
#42 =( NAMED_UNIT ( * ) SI_UNIT ( $, .STERADIAN. ) SOLID_ANGLE_UNIT ( ) );
#43 = VERTEX_POINT ( 'NONE', #68 ) ;
#44 = AXIS2_PLACEMENT_3D ( 'NONE', #151, #192, #171 ) ;
#45 = LINE ( 'NONE', #282, #264 ) ;
#46 = CARTESIAN_POINT ( 'NONE',  ( 0.000000000000000000, 0.000000000000000000, 0.000000000000000000 ) ) ;
#47 = EDGE_LOOP ( 'NONE', ( #266, #10 ) ) ;
#48 = DIRECTION ( 'NONE',  ( 1.000000000000000000, 0.000000000000000000, -0.000000000000000000 ) ) ;
#49 = DIRECTION ( 'NONE',  ( -1.000000000000000000, 0.000000000000000000, 0.000000000000000000 ) ) ;
#50 = FACE_OUTER_BOUND ( 'NONE', #198, .T. ) ;
#51 = ADVANCED_FACE ( 'NONE', ( #166 ), #142, .T. ) ;
#52 = LOCAL_TIME ( 12, 18, 24.00000000000000000, #294 ) ;
#53 = DIRECTION ( 'NONE',  ( 1.000000000000000000, 0.000000000000000000, 0.000000000000000000 ) ) ;
#54 = DIRECTION ( 'NONE',  ( 0.000000000000000000, 0.000000000000000000, -1.000000000000000000 ) ) ;
#55 = CARTESIAN_POINT ( 'NONE',  ( 2.500000000000000000, 3.061616997868383141E-16, 3.199999999999980638 ) ) ;
#56 = EDGE_CURVE ( 'NONE', #218, #69, #214, .T. ) ;
#57 = CIRCLE ( 'NONE', #107, 2.500000000000000000 ) ;
#58 = DIRECTION ( 'NONE',  ( -0.000000000000000000, -0.000000000000000000, -1.000000000000000000 ) ) ;
#59 = APPLICATION_PROTOCOL_DEFINITION ( 'international standard', 'config_control_design', 1994, #105 ) ;
#60 = ADVANCED_FACE ( 'NONE', ( #140 ), #71, .F. ) ;
#61 = ORIENTED_EDGE ( 'NONE', *, *, #221, .T. ) ;
#62 = CIRCLE ( 'NONE', #238, 2.700000000000000178 ) ;
#63 = CC_DESIGN_PERSON_AND_ORGANIZATION_ASSIGNMENT ( #85, #220, ( #260 ) ) ;
#64 = APPROVAL_STATUS ( 'not_yet_approved' ) ;
#65 = APPROVAL_ROLE ( '' ) ;
#66 = DIRECTION ( 'NONE',  ( 0.000000000000000000, 0.000000000000000000, 1.000000000000000000 ) ) ;
#67 = APPROVAL_PERSON_ORGANIZATION ( #246, #143, #224 ) ;
#68 = CARTESIAN_POINT ( 'NONE',  ( 2.700000000000000178, 0.000000000000000000, 2.999999999999990674 ) ) ;
#69 = VERTEX_POINT ( 'NONE', #121 ) ;
#70 = CARTESIAN_POINT ( 'NONE',  ( 0.000000000000000000, 0.000000000000000000, 1002.999999999999886 ) ) ;
#71 = TOROIDAL_SURFACE ( 'NONE', #15, 2.700000000000000178, 0.2000000000000000111 ) ;
#72 = AXIS2_PLACEMENT_3D ( 'NONE', #189, #213, #283 ) ;
#73 = FACE_OUTER_BOUND ( 'NONE', #176, .T. ) ;
#74 = DIRECTION ( 'NONE',  ( 0.000000000000000000, -1.000000000000000000, 0.000000000000000000 ) ) ;
#75 = ADVANCED_FACE ( 'NONE', ( #207 ), #18, .F. ) ;
#76 = LINE ( 'NONE', #190, #127 ) ;
#77 = DIRECTION ( 'NONE',  ( 1.000000000000000000, 0.000000000000000000, 0.000000000000000000 ) ) ;
#78 = DIRECTION ( 'NONE',  ( -0.000000000000000000, -0.000000000000000000, -1.000000000000000000 ) ) ;
#79 = CARTESIAN_POINT ( 'NONE',  ( -2.700000000000000178, 3.306546357697853733E-16, 3.199999999999980638 ) ) ;
#80 = CLOSED_SHELL ( 'NONE', ( #307, #110, #28, #276, #231, #75, #200, #51, #60 ) ) ;
#81 = AXIS2_PLACEMENT_3D ( 'NONE', #79, #99, #29 ) ;
#82 = DATE_AND_TIME ( #158, #133 ) ;
#83 = SECURITY_CLASSIFICATION_LEVEL ( 'unclassified' ) ;
#84 = ORIENTED_EDGE ( 'NONE', *, *, #154, .T. ) ;
#85 = PERSON_AND_ORGANIZATION ( #89, #8 ) ;
#86 = ORIENTED_EDGE ( 'NONE', *, *, #289, .F. ) ;
#87 = UNCERTAINTY_MEASURE_WITH_UNIT (LENGTH_MEASURE( 1.000000000000000082E-05 ), #269, 'distance_accuracy_value', 'NONE');
#88 = APPROVAL_DATE_TIME ( #116, #143 ) ;
#89 = PERSON ( 'NEURÈENÝ', 'NEURÈENÝ', 'NEURÈENÝ', ('NEURÈENÝ'), ('NEURÈENÝ'), ('NEURÈENÝ') ) ;
#90 = DIRECTION ( 'NONE',  ( 1.000000000000000000, 0.000000000000000000, 0.000000000000000000 ) ) ;
#91 = CARTESIAN_POINT ( 'NONE',  ( 0.000000000000000000, 0.000000000000000000, 1002.999999999999886 ) ) ;
#92 = CIRCLE ( 'NONE', #123, 2.700000000000000178 ) ;
#93 = DIRECTION ( 'NONE',  ( -0.000000000000000000, -0.000000000000000000, -1.000000000000000000 ) ) ;
#94 = ORIENTED_EDGE ( 'NONE', *, *, #298, .F. ) ;
#95 = DIRECTION ( 'NONE',  ( 0.000000000000000000, 0.000000000000000000, 1.000000000000000000 ) ) ;
#96 = CC_DESIGN_APPROVAL ( #39, ( #260 ) ) ;
#97 = EDGE_CURVE ( 'NONE', #184, #115, #57, .T. ) ;
#98 = DIRECTION ( 'NONE',  ( 1.000000000000000000, 0.000000000000000000, 0.000000000000000000 ) ) ;
#99 = DIRECTION ( 'NONE',  ( 1.224646799147353207E-16, 1.000000000000000000, -0.000000000000000000 ) ) ;
#100 = EDGE_CURVE ( 'NONE', #161, #69, #45, .T. ) ;
#101 = AXIS2_PLACEMENT_3D ( 'NONE', #211, #261, #98 ) ;
#102 = VECTOR ( 'NONE', #58, 1000.000000000000000 ) ;
#103 = CARTESIAN_POINT ( 'NONE',  ( 0.000000000000000000, 0.000000000000000000, 3.000000000000000000 ) ) ;
#104 = DIRECTION ( 'NONE',  ( 0.000000000000000000, 0.000000000000000000, 1.000000000000000000 ) ) ;
#105 = APPLICATION_CONTEXT ( 'configuration controlled 3d designs of mechanical parts and assemblies' ) ;
#106 = PERSON_AND_ORGANIZATION_ROLE ( 'creator' ) ;
#107 = AXIS2_PLACEMENT_3D ( 'NONE', #235, #95, #187 ) ;
#108 = VECTOR ( 'NONE', #305, 1000.000000000000000 ) ;
#109 = APPROVAL_DATE_TIME ( #112, #226 ) ;
#110 = ADVANCED_FACE ( 'NONE', ( #73 ), #257, .T. ) ;
#111 = ORIENTED_EDGE ( 'NONE', *, *, #210, .F. ) ;
#112 = DATE_AND_TIME ( #175, #280 ) ;
#113 = ORIENTED_EDGE ( 'NONE', *, *, #281, .T. ) ;
#114 = PERSON_AND_ORGANIZATION ( #89, #8 ) ;
#115 = VERTEX_POINT ( 'NONE', #159 ) ;
#116 = DATE_AND_TIME ( #291, #145 ) ;
#117 = TOROIDAL_SURFACE ( 'NONE', #72, 2.700000000000000178, 0.2000000000000000111 ) ;
#118 = VERTEX_POINT ( 'NONE', #138 ) ;
#119 = ORIENTED_EDGE ( 'NONE', *, *, #17, .F. ) ;
#120 = DIRECTION ( 'NONE',  ( -1.000000000000000000, 0.000000000000000000, 0.000000000000000000 ) ) ;
#121 = CARTESIAN_POINT ( 'NONE',  ( -5.000000000000000000, 0.000000000000000000, 0.000000000000000000 ) ) ;
#122 = DIRECTION ( 'NONE',  ( 0.000000000000000000, 0.000000000000000000, 1.000000000000000000 ) ) ;
#123 = AXIS2_PLACEMENT_3D ( 'NONE', #128, #259, #126 ) ;
#124 = DIRECTION ( 'NONE',  ( 0.000000000000000000, 0.000000000000000000, 1.000000000000000000 ) ) ;
#125 = CYLINDRICAL_SURFACE ( 'NONE', #251, 5.000000000000000000 ) ;
#126 = DIRECTION ( 'NONE',  ( 1.000000000000000000, 0.000000000000000000, 0.000000000000000000 ) ) ;
#127 = VECTOR ( 'NONE', #237, 1000.000000000000000 ) ;
#128 = CARTESIAN_POINT ( 'NONE',  ( 0.000000000000000000, 0.000000000000000000, 3.000000000000000000 ) ) ;
#129 = CARTESIAN_POINT ( 'NONE',  ( 2.500000000000000000, 3.061616997868383141E-16, 1002.999999999999886 ) ) ;
#130 = EDGE_CURVE ( 'NONE', #222, #43, #62, .T. ) ;
#131 = APPLICATION_PROTOCOL_DEFINITION ( 'international standard', 'config_control_design', 1994, #24 ) ;
#132 = ORIENTED_EDGE ( 'NONE', *, *, #302, .T. ) ;
#133 = LOCAL_TIME ( 12, 18, 24.00000000000000000, #288 ) ;
#134 = PERSON_AND_ORGANIZATION ( #89, #8 ) ;
#135 = DATE_AND_TIME ( #195, #52 ) ;
#136 = CIRCLE ( 'NONE', #219, 5.000000000000000000 ) ;
#137 = ORIENTED_EDGE ( 'NONE', *, *, #180, .T. ) ;
#138 = CARTESIAN_POINT ( 'NONE',  ( -2.500000000000000000, 0.000000000000000000, 1002.999999999999886 ) ) ;
#139 = PRODUCT_DEFINITION ( 'NEZNÁMÝ', '', #274, #267 ) ;
#140 = FACE_OUTER_BOUND ( 'NONE', #273, .T. ) ;
#141 = ORIENTED_EDGE ( 'NONE', *, *, #221, .F. ) ;
#142 = PLANE ( 'NONE',  #250 ) ;
#143 = APPROVAL ( #6, 'NEURÈENÝ' ) ;
#144 = LINE ( 'NONE', #263, #102 ) ;
#145 = LOCAL_TIME ( 12, 18, 24.00000000000000000, #13 ) ;
#146 = CARTESIAN_POINT ( 'NONE',  ( 0.000000000000000000, 0.000000000000000000, 1002.999999999999886 ) ) ;
#147 = CC_DESIGN_PERSON_AND_ORGANIZATION_ASSIGNMENT ( #41, #217, ( #271 ) ) ;
#148 = DIRECTION ( 'NONE',  ( 0.000000000000000000, 0.000000000000000000, 1.000000000000000000 ) ) ;
#149 = DIRECTION ( 'NONE',  ( 1.000000000000000000, 0.000000000000000000, 0.000000000000000000 ) ) ;
#150 = AXIS2_PLACEMENT_3D ( 'NONE', #167, #148, #170 ) ;
#151 = CARTESIAN_POINT ( 'NONE',  ( 0.000000000000000000, 0.000000000000000000, 3.000000000000000000 ) ) ;
#152 = DIRECTION ( 'NONE',  ( 0.000000000000000000, 0.000000000000000000, 1.000000000000000000 ) ) ;
#153 = DATE_TIME_ROLE ( 'creation_date' ) ;
#154 = EDGE_CURVE ( 'NONE', #184, #43, #2, .T. ) ;
#155 = ORIENTED_EDGE ( 'NONE', *, *, #205, .F. ) ;
#156 = CARTESIAN_POINT ( 'NONE',  ( 0.000000000000000000, 0.000000000000000000, 0.000000000000000000 ) ) ;
#157 = EDGE_LOOP ( 'NONE', ( #293, #179 ) ) ;
#158 = CALENDAR_DATE ( 2022, 7, 7 ) ;
#159 = CARTESIAN_POINT ( 'NONE',  ( -2.500000000000000000, 0.000000000000000000, 3.199999999999980638 ) ) ;
#160 = EDGE_CURVE ( 'NONE', #115, #222, #203, .T. ) ;
#161 = VERTEX_POINT ( 'NONE', #258 ) ;
#162 = CYLINDRICAL_SURFACE ( 'NONE', #227, 5.000000000000000000 ) ;
#163 = EDGE_CURVE ( 'NONE', #185, #118, #199, .T. ) ;
#164 = CARTESIAN_POINT ( 'NONE',  ( 0.000000000000000000, 0.000000000000000000, 3.199999999999980638 ) ) ;
#165 = AXIS2_PLACEMENT_3D ( 'NONE', #91, #19, #49 ) ;
#166 = FACE_OUTER_BOUND ( 'NONE', #157, .T. ) ;
#167 = CARTESIAN_POINT ( 'NONE',  ( 0.000000000000000000, 0.000000000000000000, 3.199999999999980638 ) ) ;
#168 = DIRECTION ( 'NONE',  ( -1.000000000000000000, 0.000000000000000000, 0.000000000000000000 ) ) ;
#169 =( GEOMETRIC_REPRESENTATION_CONTEXT ( 3 ) GLOBAL_UNCERTAINTY_ASSIGNED_CONTEXT ( ( #87 ) ) GLOBAL_UNIT_ASSIGNED_CONTEXT ( ( #269, #34, #42 ) ) REPRESENTATION_CONTEXT ( 'NONE', 'WORKASPACE' ) );
#170 = DIRECTION ( 'NONE',  ( 1.000000000000000000, 0.000000000000000000, 0.000000000000000000 ) ) ;
#171 = DIRECTION ( 'NONE',  ( 1.000000000000000000, 0.000000000000000000, -0.000000000000000000 ) ) ;
#172 = FACE_OUTER_BOUND ( 'NONE', #7, .T. ) ;
#173 = CC_DESIGN_PERSON_AND_ORGANIZATION_ASSIGNMENT ( #134, #106, ( #274 ) ) ;
#174 = AXIS2_PLACEMENT_3D ( 'NONE', #285, #74, #54 ) ;
#175 = CALENDAR_DATE ( 2022, 7, 7 ) ;
#176 = EDGE_LOOP ( 'NONE', ( #25, #132, #11, #141 ) ) ;
#177 = DATE_TIME_ROLE ( 'classification_date' ) ;
#178 = PERSON_AND_ORGANIZATION ( #89, #8 ) ;
#179 = ORIENTED_EDGE ( 'NONE', *, *, #163, .T. ) ;
#180 = EDGE_CURVE ( 'NONE', #115, #184, #209, .T. ) ;
#181 = ADVANCED_BREP_SHAPE_REPRESENTATION ( '9dd4', ( #40, #228 ), #169 ) ;
#182 = APPROVAL_PERSON_ORGANIZATION ( #36, #39, #65 ) ;
#183 = ORIENTED_EDGE ( 'NONE', *, *, #100, .F. ) ;
#184 = VERTEX_POINT ( 'NONE', #55 ) ;
#185 = VERTEX_POINT ( 'NONE', #262 ) ;
#186 = CC_DESIGN_PERSON_AND_ORGANIZATION_ASSIGNMENT ( #178, #38, ( #274 ) ) ;
#187 = DIRECTION ( 'NONE',  ( 1.000000000000000000, 0.000000000000000000, 0.000000000000000000 ) ) ;
#188 = CIRCLE ( 'NONE', #101, 2.500000000000000000 ) ;
#189 = CARTESIAN_POINT ( 'NONE',  ( 0.000000000000000000, 0.000000000000000000, 3.199999999999980638 ) ) ;
#190 = CARTESIAN_POINT ( 'NONE',  ( 5.000000000000000000, 6.123233995736766282E-16, 3.000000000000000000 ) ) ;
#191 = CARTESIAN_POINT ( 'NONE',  ( 0.000000000000000000, 0.000000000000000000, 3.000000000000000000 ) ) ;
#192 = DIRECTION ( 'NONE',  ( 0.000000000000000000, 0.000000000000000000, 1.000000000000000000 ) ) ;
#193 = CC_DESIGN_DATE_AND_TIME_ASSIGNMENT ( #135, #153, ( #139 ) ) ;
#194 = FACE_BOUND ( 'NONE', #47, .T. ) ;
#195 = CALENDAR_DATE ( 2022, 7, 7 ) ;
#196 = ORIENTED_EDGE ( 'NONE', *, *, #17, .T. ) ;
#197 = COORDINATED_UNIVERSAL_TIME_OFFSET ( 1, 0, .AHEAD. ) ;
#198 = EDGE_LOOP ( 'NONE', ( #86, #245, #14, #196 ) ) ;
#199 = CIRCLE ( 'NONE', #299, 2.500000000000000000 ) ;
#200 = ADVANCED_FACE ( 'NONE', ( #172 ), #286, .T. ) ;
#201 = APPROVAL_DATE_TIME ( #82, #39 ) ;
#202 = VERTEX_POINT ( 'NONE', #284 ) ;
#203 = CIRCLE ( 'NONE', #81, 0.2000000000000000944 ) ;
#204 = CARTESIAN_POINT ( 'NONE',  ( 0.000000000000000000, 0.000000000000000000, 0.000000000000000000 ) ) ;
#205 = EDGE_CURVE ( 'NONE', #202, #161, #304, .T. ) ;
#206 = DIRECTION ( 'NONE',  ( 1.000000000000000000, 0.000000000000000000, 0.000000000000000000 ) ) ;
#207 = FACE_OUTER_BOUND ( 'NONE', #230, .T. ) ;
#208 = FACE_OUTER_BOUND ( 'NONE', #23, .T. ) ;
#209 = CIRCLE ( 'NONE', #150, 2.500000000000000000 ) ;
#210 = EDGE_CURVE ( 'NONE', #118, #185, #188, .T. ) ;
#211 = CARTESIAN_POINT ( 'NONE',  ( 0.000000000000000000, 0.000000000000000000, 1002.999999999999886 ) ) ;
#212 = CARTESIAN_POINT ( 'NONE',  ( -2.700000000000000178, 3.306546357697853733E-16, 2.999999999999990674 ) ) ;
#213 = DIRECTION ( 'NONE',  ( 0.000000000000000000, 0.000000000000000000, 1.000000000000000000 ) ) ;
#214 = CIRCLE ( 'NONE', #255, 5.000000000000000000 ) ;
#215 = CARTESIAN_POINT ( 'NONE',  ( 0.000000000000000000, 0.000000000000000000, 1002.999999999999886 ) ) ;
#216 = APPROVAL_ROLE ( '' ) ;
#217 = PERSON_AND_ORGANIZATION_ROLE ( 'design_owner' ) ;
#218 = VERTEX_POINT ( 'NONE', #27 ) ;
#219 = AXIS2_PLACEMENT_3D ( 'NONE', #5, #242, #77 ) ;
#220 = PERSON_AND_ORGANIZATION_ROLE ( 'classification_officer' ) ;
#221 = EDGE_CURVE ( 'NONE', #118, #115, #144, .T. ) ;
#222 = VERTEX_POINT ( 'NONE', #212 ) ;
#223 = DIRECTION ( 'NONE',  ( 1.000000000000000000, 0.000000000000000000, 0.000000000000000000 ) ) ;
#224 = APPROVAL_ROLE ( '' ) ;
#225 = ORIENTED_EDGE ( 'NONE', *, *, #97, .F. ) ;
#226 = APPROVAL ( #9, 'NEURÈENÝ' ) ;
#227 = AXIS2_PLACEMENT_3D ( 'NONE', #303, #93, #120 ) ;
#228 = AXIS2_PLACEMENT_3D ( 'NONE', #156, #152, #223 ) ;
#229 = ORIENTED_EDGE ( 'NONE', *, *, #180, .F. ) ;
#230 = EDGE_LOOP ( 'NONE', ( #119, #275 ) ) ;
#231 = ADVANCED_FACE ( 'NONE', ( #194, #240 ), #287, .T. ) ;
#232 = DIRECTION ( 'NONE',  ( -0.000000000000000000, -0.000000000000000000, -1.000000000000000000 ) ) ;
#233 = APPROVAL_PERSON_ORGANIZATION ( #114, #226, #216 ) ;
#234 = DIRECTION ( 'NONE',  ( 1.000000000000000000, 0.000000000000000000, 0.000000000000000000 ) ) ;
#235 = CARTESIAN_POINT ( 'NONE',  ( 0.000000000000000000, 0.000000000000000000, 3.199999999999980638 ) ) ;
#236 = ORIENTED_EDGE ( 'NONE', *, *, #130, .F. ) ;
#237 = DIRECTION ( 'NONE',  ( -0.000000000000000000, -0.000000000000000000, -1.000000000000000000 ) ) ;
#238 = AXIS2_PLACEMENT_3D ( 'NONE', #103, #3, #306 ) ;
#239 = FACE_OUTER_BOUND ( 'NONE', #248, .T. ) ;
#240 = FACE_OUTER_BOUND ( 'NONE', #35, .T. ) ;
#241 = DIRECTION ( 'NONE',  ( -0.000000000000000000, -0.000000000000000000, -1.000000000000000000 ) ) ;
#242 = DIRECTION ( 'NONE',  ( 0.000000000000000000, 0.000000000000000000, 1.000000000000000000 ) ) ;
#243 = ORIENTED_EDGE ( 'NONE', *, *, #154, .F. ) ;
#244 = DATE_AND_TIME ( #272, #31 ) ;
#245 = ORIENTED_EDGE ( 'NONE', *, *, #281, .F. ) ;
#246 = PERSON_AND_ORGANIZATION ( #89, #8 ) ;
#247 = MECHANICAL_CONTEXT ( 'NONE', #24, 'mechanical' ) ;
#248 = EDGE_LOOP ( 'NONE', ( #229, #301, #94, #243 ) ) ;
#249 = CC_DESIGN_PERSON_AND_ORGANIZATION_ASSIGNMENT ( #296, #292, ( #139 ) ) ;
#250 = AXIS2_PLACEMENT_3D ( 'NONE', #70, #253, #21 ) ;
#251 = AXIS2_PLACEMENT_3D ( 'NONE', #191, #241, #32 ) ;
#252 = ORIENTED_EDGE ( 'NONE', *, *, #302, .F. ) ;
#253 = DIRECTION ( 'NONE',  ( 0.000000000000000000, 0.000000000000000000, 1.000000000000000000 ) ) ;
#254 = ORIENTED_EDGE ( 'NONE', *, *, #289, .T. ) ;
#255 = AXIS2_PLACEMENT_3D ( 'NONE', #46, #297, #206 ) ;
#256 = DIRECTION ( 'NONE',  ( 0.000000000000000000, 0.000000000000000000, 1.000000000000000000 ) ) ;
#257 = CYLINDRICAL_SURFACE ( 'NONE', #165, 2.500000000000000000 ) ;
#258 = CARTESIAN_POINT ( 'NONE',  ( -5.000000000000000000, 0.000000000000000000, 3.000000000000000000 ) ) ;
#259 = DIRECTION ( 'NONE',  ( -0.000000000000000000, -0.000000000000000000, -1.000000000000000000 ) ) ;
#260 = SECURITY_CLASSIFICATION ( '', '', #83 ) ;
#261 = DIRECTION ( 'NONE',  ( 0.000000000000000000, 0.000000000000000000, 1.000000000000000000 ) ) ;
#262 = CARTESIAN_POINT ( 'NONE',  ( 2.500000000000000000, 3.061616997868383141E-16, 1002.999999999999886 ) ) ;
#263 = CARTESIAN_POINT ( 'NONE',  ( -2.500000000000000000, 0.000000000000000000, 1002.999999999999886 ) ) ;
#264 = VECTOR ( 'NONE', #232, 1000.000000000000000 ) ;
#265 = COORDINATED_UNIVERSAL_TIME_OFFSET ( 1, 0, .AHEAD. ) ;
#266 = ORIENTED_EDGE ( 'NONE', *, *, #298, .T. ) ;
#267 = DESIGN_CONTEXT ( 'detailed design', #105, 'design' ) ;
#268 = CC_DESIGN_APPROVAL ( #226, ( #139 ) ) ;
#269 =( LENGTH_UNIT ( ) NAMED_UNIT ( * ) SI_UNIT ( .MILLI., .METRE. ) );
#270 = ORIENTED_EDGE ( 'NONE', *, *, #205, .T. ) ;
#271 = PRODUCT ( '9dd4', '9dd4', '', ( #247 ) ) ;
#272 = CALENDAR_DATE ( 2022, 7, 7 ) ;
#273 = EDGE_LOOP ( 'NONE', ( #300, #225, #84, #236 ) ) ;
#274 = PRODUCT_DEFINITION_FORMATION_WITH_SPECIFIED_SOURCE ( 'LIBOVOLNÝ', '', #271, .NOT_KNOWN. ) ;
#275 = ORIENTED_EDGE ( 'NONE', *, *, #56, .F. ) ;
#276 = ADVANCED_FACE ( 'NONE', ( #50 ), #125, .T. ) ;
#277 = PRODUCT_DEFINITION_SHAPE ( 'NONE', 'NONE',  #139 ) ;
#278 = ORIENTED_EDGE ( 'NONE', *, *, #56, .T. ) ;
#279 = CARTESIAN_POINT ( 'NONE',  ( 0.000000000000000000, 0.000000000000000000, 0.000000000000000000 ) ) ;
#280 = LOCAL_TIME ( 12, 18, 24.00000000000000000, #197 ) ;
#281 = EDGE_CURVE ( 'NONE', #161, #202, #136, .T. ) ;
#282 = CARTESIAN_POINT ( 'NONE',  ( -5.000000000000000000, 0.000000000000000000, 3.000000000000000000 ) ) ;
#283 = DIRECTION ( 'NONE',  ( 1.000000000000000000, 0.000000000000000000, 0.000000000000000000 ) ) ;
#284 = CARTESIAN_POINT ( 'NONE',  ( 5.000000000000000000, 6.123233995736766282E-16, 3.000000000000000000 ) ) ;
#285 = CARTESIAN_POINT ( 'NONE',  ( 2.700000000000000178, 0.000000000000000000, 3.199999999999980638 ) ) ;
#286 = CYLINDRICAL_SURFACE ( 'NONE', #290, 2.500000000000000000 ) ;
#287 = PLANE ( 'NONE',  #44 ) ;
#288 = COORDINATED_UNIVERSAL_TIME_OFFSET ( 1, 0, .AHEAD. ) ;
#289 = EDGE_CURVE ( 'NONE', #202, #218, #76, .T. ) ;
#290 = AXIS2_PLACEMENT_3D ( 'NONE', #215, #78, #168 ) ;
#291 = CALENDAR_DATE ( 2022, 7, 7 ) ;
#292 = PERSON_AND_ORGANIZATION_ROLE ( 'creator' ) ;
#293 = ORIENTED_EDGE ( 'NONE', *, *, #210, .T. ) ;
#294 = COORDINATED_UNIVERSAL_TIME_OFFSET ( 1, 0, .AHEAD. ) ;
#295 = CIRCLE ( 'NONE', #1, 5.000000000000000000 ) ;
#296 = PERSON_AND_ORGANIZATION ( #89, #8 ) ;
#297 = DIRECTION ( 'NONE',  ( 0.000000000000000000, 0.000000000000000000, 1.000000000000000000 ) ) ;
#298 = EDGE_CURVE ( 'NONE', #43, #222, #92, .T. ) ;
#299 = AXIS2_PLACEMENT_3D ( 'NONE', #146, #124, #53 ) ;
#300 = ORIENTED_EDGE ( 'NONE', *, *, #160, .F. ) ;
#301 = ORIENTED_EDGE ( 'NONE', *, *, #160, .T. ) ;
#302 = EDGE_CURVE ( 'NONE', #185, #184, #33, .T. ) ;
#303 = CARTESIAN_POINT ( 'NONE',  ( 0.000000000000000000, 0.000000000000000000, 3.000000000000000000 ) ) ;
#304 = CIRCLE ( 'NONE', #16, 5.000000000000000000 ) ;
#305 = DIRECTION ( 'NONE',  ( -0.000000000000000000, -0.000000000000000000, -1.000000000000000000 ) ) ;
#306 = DIRECTION ( 'NONE',  ( 1.000000000000000000, 0.000000000000000000, 0.000000000000000000 ) ) ;
#307 = ADVANCED_FACE ( 'NONE', ( #239 ), #117, .F. ) ;
ENDSEC;
END-ISO-10303-21;
