ISO-10303-21;
HEADER;
FILE_DESCRIPTION (( 'STEP AP203' ),
    '1' );
FILE_NAME ('a31e.STEP',
    '2022-07-07T10:36:17',
    ( '' ),
    ( '' ),
    'SwSTEP 2.0',
    'SolidWorks 2019',
    '' );
FILE_SCHEMA (( 'CONFIG_CONTROL_DESIGN' ));
ENDSEC;

DATA;
#1 = CARTESIAN_POINT ( 'NONE',  ( -1.000000000000000000, 0.000000000000000000, 102.0000000000000142 ) ) ;
#2 = EDGE_CURVE ( 'NONE', #38, #74, #157, .T. ) ;
#3 = FACE_OUTER_BOUND ( 'NONE', #163, .T. ) ;
#4 = CIRCLE ( 'NONE', #86, 2.000000000000000000 ) ;
#5 = DIRECTION ( 'NONE',  ( 1.000000000000000000, 0.000000000000000000, 0.000000000000000000 ) ) ;
#6 = FACE_OUTER_BOUND ( 'NONE', #200, .T. ) ;
#7 = CARTESIAN_POINT ( 'NONE',  ( 0.000000000000000000, 0.000000000000000000, 0.000000000000000000 ) ) ;
#8 = PERSON ( 'NEURÈENÝ', 'NEURÈENÝ', 'NEURÈENÝ', ('NEURÈENÝ'), ('NEURÈENÝ'), ('NEURÈENÝ') ) ;
#9 = TOROIDAL_SURFACE ( 'NONE', #242, 1.200000000000000178, 0.2000000000000000111 ) ;
#10 = CC_DESIGN_PERSON_AND_ORGANIZATION_ASSIGNMENT ( #227, #17, ( #125 ) ) ;
#11 = ORIENTED_EDGE ( 'NONE', *, *, #123, .F. ) ;
#12 = AXIS2_PLACEMENT_3D ( 'NONE', #40, #298, #92 ) ;
#13 = EDGE_CURVE ( 'NONE', #131, #112, #96, .T. ) ;
#14 = ORIENTED_EDGE ( 'NONE', *, *, #24, .T. ) ;
#15 =( NAMED_UNIT ( * ) SI_UNIT ( $, .STERADIAN. ) SOLID_ANGLE_UNIT ( ) );
#16 = EDGE_LOOP ( 'NONE', ( #201, #108, #228, #184 ) ) ;
#17 = PERSON_AND_ORGANIZATION_ROLE ( 'classification_officer' ) ;
#18 = VERTEX_POINT ( 'NONE', #277 ) ;
#19 = DATE_AND_TIME ( #115, #162 ) ;
#20 = PLANE ( 'NONE',  #51 ) ;
#21 = ORGANIZATION ( 'NEURÈENÝ', 'NEURÈENÝ', '' ) ;
#22 = APPROVAL_STATUS ( 'not_yet_approved' ) ;
#23 = DIRECTION ( 'NONE',  ( 0.000000000000000000, 0.000000000000000000, -1.000000000000000000 ) ) ;
#24 = EDGE_CURVE ( 'NONE', #167, #112, #194, .T. ) ;
#25 = COORDINATED_UNIVERSAL_TIME_OFFSET ( 1, 0, .AHEAD. ) ;
#26 = DIRECTION ( 'NONE',  ( 0.000000000000000000, -1.000000000000000000, 0.000000000000000000 ) ) ;
#27 = PERSON_AND_ORGANIZATION_ROLE ( 'creator' ) ;
#28 = CYLINDRICAL_SURFACE ( 'NONE', #254, 2.000000000000000000 ) ;
#29 = APPROVAL ( #209, 'NEURÈENÝ' ) ;
#30 = APPROVAL_PERSON_ORGANIZATION ( #306, #81, #119 ) ;
#31 = APPROVAL_ROLE ( '' ) ;
#32 = FACE_OUTER_BOUND ( 'NONE', #72, .T. ) ;
#33 = DIRECTION ( 'NONE',  ( -1.000000000000000000, 0.000000000000000000, 0.000000000000000000 ) ) ;
#34 = DIRECTION ( 'NONE',  ( -0.000000000000000000, -0.000000000000000000, -1.000000000000000000 ) ) ;
#35 = DIRECTION ( 'NONE',  ( 0.000000000000000000, 0.000000000000000000, 1.000000000000000000 ) ) ;
#36 = CARTESIAN_POINT ( 'NONE',  ( 0.000000000000000000, 0.000000000000000000, 102.0000000000000142 ) ) ;
#37 = EDGE_CURVE ( 'NONE', #246, #61, #248, .T. ) ;
#38 = VERTEX_POINT ( 'NONE', #281 ) ;
#39 = AXIS2_PLACEMENT_3D ( 'NONE', #79, #239, #5 ) ;
#40 = CARTESIAN_POINT ( 'NONE',  ( 0.000000000000000000, 0.000000000000000000, 2.000000000000000000 ) ) ;
#41 = EDGE_CURVE ( 'NONE', #233, #276, #152, .T. ) ;
#42 = PRODUCT_DEFINITION_SHAPE ( 'NONE', 'NONE',  #150 ) ;
#43 = DIRECTION ( 'NONE',  ( 0.000000000000000000, 0.000000000000000000, 1.000000000000000000 ) ) ;
#44 = ORIENTED_EDGE ( 'NONE', *, *, #37, .T. ) ;
#45 = CC_DESIGN_APPROVAL ( #29, ( #134 ) ) ;
#46 = DIRECTION ( 'NONE',  ( 1.000000000000000000, 0.000000000000000000, 0.000000000000000000 ) ) ;
#47 = ORIENTED_EDGE ( 'NONE', *, *, #305, .T. ) ;
#48 = DIRECTION ( 'NONE',  ( 0.000000000000000000, 0.000000000000000000, 1.000000000000000000 ) ) ;
#49 = APPROVAL_STATUS ( 'not_yet_approved' ) ;
#50 = CYLINDRICAL_SURFACE ( 'NONE', #187, 2.000000000000000000 ) ;
#51 = AXIS2_PLACEMENT_3D ( 'NONE', #118, #70, #259 ) ;
#52 = AXIS2_PLACEMENT_3D ( 'NONE', #104, #176, #195 ) ;
#53 = DIRECTION ( 'NONE',  ( 1.000000000000000000, 0.000000000000000000, -0.000000000000000000 ) ) ;
#54 = CYLINDRICAL_SURFACE ( 'NONE', #238, 1.000000000000000000 ) ;
#55 = AXIS2_PLACEMENT_3D ( 'NONE', #139, #143, #213 ) ;
#56 = EDGE_CURVE ( 'NONE', #38, #233, #290, .T. ) ;
#57 = AXIS2_PLACEMENT_3D ( 'NONE', #193, #102, #59 ) ;
#58 = DIRECTION ( 'NONE',  ( 1.000000000000000000, 0.000000000000000000, 0.000000000000000000 ) ) ;
#59 = DIRECTION ( 'NONE',  ( 1.000000000000000000, 0.000000000000000000, 0.000000000000000000 ) ) ;
#60 = EDGE_LOOP ( 'NONE', ( #182, #262, #47, #294 ) ) ;
#61 = VERTEX_POINT ( 'NONE', #279 ) ;
#62 =( NAMED_UNIT ( * ) PLANE_ANGLE_UNIT ( ) SI_UNIT ( $, .RADIAN. ) );
#63 = EDGE_LOOP ( 'NONE', ( #177, #161 ) ) ;
#64 = LOCAL_TIME ( 12, 36, 17.00000000000000000, #203 ) ;
#65 = APPROVAL_DATE_TIME ( #280, #29 ) ;
#66 = CC_DESIGN_PERSON_AND_ORGANIZATION_ASSIGNMENT ( #282, #135, ( #134 ) ) ;
#67 = CARTESIAN_POINT ( 'NONE',  ( 1.200000000000000178, 0.000000000000000000, 2.199999999999993516 ) ) ;
#68 = CARTESIAN_POINT ( 'NONE',  ( 2.000000000000000000, 2.449293598294706414E-16, 0.000000000000000000 ) ) ;
#69 = AXIS2_PLACEMENT_3D ( 'NONE', #204, #190, #237 ) ;
#70 = DIRECTION ( 'NONE',  ( 0.000000000000000000, 0.000000000000000000, 1.000000000000000000 ) ) ;
#71 = PERSON_AND_ORGANIZATION ( #8, #21 ) ;
#72 = EDGE_LOOP ( 'NONE', ( #304, #235 ) ) ;
#73 = DATE_TIME_ROLE ( 'creation_date' ) ;
#74 = VERTEX_POINT ( 'NONE', #307 ) ;
#75 = ADVANCED_FACE ( 'NONE', ( #229 ), #28, .T. ) ;
#76 = CIRCLE ( 'NONE', #91, 1.200000000000000178 ) ;
#77 = FACE_OUTER_BOUND ( 'NONE', #60, .T. ) ;
#78 = DIRECTION ( 'NONE',  ( 1.000000000000000000, 0.000000000000000000, 0.000000000000000000 ) ) ;
#79 = CARTESIAN_POINT ( 'NONE',  ( 0.000000000000000000, 0.000000000000000000, 2.199999999999993516 ) ) ;
#80 = CARTESIAN_POINT ( 'NONE',  ( 1.000000000000000000, 1.224646799147353207E-16, 102.0000000000000142 ) ) ;
#81 = APPROVAL ( #22, 'NEURÈENÝ' ) ;
#82 = DESIGN_CONTEXT ( 'detailed design', #257, 'design' ) ;
#83 = APPROVAL_PERSON_ORGANIZATION ( #95, #29, #302 ) ;
#84 = CARTESIAN_POINT ( 'NONE',  ( 2.000000000000000000, 2.449293598294706414E-16, 2.000000000000000000 ) ) ;
#85 = AXIS2_PLACEMENT_3D ( 'NONE', #113, #48, #231 ) ;
#86 = AXIS2_PLACEMENT_3D ( 'NONE', #7, #99, #291 ) ;
#87 = APPROVAL_DATE_TIME ( #216, #94 ) ;
#88 = ADVANCED_FACE ( 'NONE', ( #258 ), #50, .T. ) ;
#89 = COORDINATED_UNIVERSAL_TIME_OFFSET ( 1, 0, .AHEAD. ) ;
#90 = CARTESIAN_POINT ( 'NONE',  ( 0.000000000000000000, 0.000000000000000000, 0.000000000000000000 ) ) ;
#91 = AXIS2_PLACEMENT_3D ( 'NONE', #265, #100, #58 ) ;
#92 = DIRECTION ( 'NONE',  ( 1.000000000000000000, 0.000000000000000000, 0.000000000000000000 ) ) ;
#93 = DIRECTION ( 'NONE',  ( -1.000000000000000000, 0.000000000000000000, 0.000000000000000000 ) ) ;
#94 = APPROVAL ( #49, 'NEURÈENÝ' ) ;
#95 = PERSON_AND_ORGANIZATION ( #8, #21 ) ;
#96 = LINE ( 'NONE', #181, #303 ) ;
#97 = DIRECTION ( 'NONE',  ( 0.000000000000000000, 0.000000000000000000, 1.000000000000000000 ) ) ;
#98 = ADVANCED_FACE ( 'NONE', ( #169, #32 ), #20, .T. ) ;
#99 = DIRECTION ( 'NONE',  ( 0.000000000000000000, 0.000000000000000000, 1.000000000000000000 ) ) ;
#100 = DIRECTION ( 'NONE',  ( -0.000000000000000000, -0.000000000000000000, -1.000000000000000000 ) ) ;
#101 = AXIS2_PLACEMENT_3D ( 'NONE', #142, #43, #46 ) ;
#102 = DIRECTION ( 'NONE',  ( 0.000000000000000000, 0.000000000000000000, 1.000000000000000000 ) ) ;
#103 = DIRECTION ( 'NONE',  ( 1.000000000000000000, 0.000000000000000000, 0.000000000000000000 ) ) ;
#104 = CARTESIAN_POINT ( 'NONE',  ( 0.000000000000000000, 0.000000000000000000, 2.000000000000000000 ) ) ;
#105 = CIRCLE ( 'NONE', #180, 1.000000000000000000 ) ;
#106 = CIRCLE ( 'NONE', #39, 1.000000000000000000 ) ;
#107 = EDGE_CURVE ( 'NONE', #74, #276, #129, .T. ) ;
#108 = ORIENTED_EDGE ( 'NONE', *, *, #155, .F. ) ;
#109 = PRODUCT_RELATED_PRODUCT_CATEGORY ( 'detail', '', ( #186 ) ) ;
#110 = ORIENTED_EDGE ( 'NONE', *, *, #13, .T. ) ;
#111 = ORIENTED_EDGE ( 'NONE', *, *, #305, .F. ) ;
#112 = VERTEX_POINT ( 'NONE', #68 ) ;
#113 = CARTESIAN_POINT ( 'NONE',  ( 0.000000000000000000, 0.000000000000000000, 2.199999999999993516 ) ) ;
#114 = CC_DESIGN_SECURITY_CLASSIFICATION ( #125, ( #134 ) ) ;
#115 = CALENDAR_DATE ( 2022, 7, 7 ) ;
#116 = EDGE_LOOP ( 'NONE', ( #253, #111, #179, #160 ) ) ;
#117 = DATE_AND_TIME ( #278, #269 ) ;
#118 = CARTESIAN_POINT ( 'NONE',  ( 0.000000000000000000, 0.000000000000000000, 2.000000000000000000 ) ) ;
#119 = APPROVAL_ROLE ( '' ) ;
#120 = ORIENTED_EDGE ( 'NONE', *, *, #155, .T. ) ;
#121 = CARTESIAN_POINT ( 'NONE',  ( 0.000000000000000000, 0.000000000000000000, 102.0000000000000142 ) ) ;
#122 = FACE_OUTER_BOUND ( 'NONE', #271, .T. ) ;
#123 = EDGE_CURVE ( 'NONE', #276, #74, #76, .T. ) ;
#124 = DIRECTION ( 'NONE',  ( -0.000000000000000000, -0.000000000000000000, -1.000000000000000000 ) ) ;
#125 = SECURITY_CLASSIFICATION ( '', '', #275 ) ;
#126 = DIRECTION ( 'NONE',  ( 1.000000000000000000, 0.000000000000000000, -0.000000000000000000 ) ) ;
#127 = UNCERTAINTY_MEASURE_WITH_UNIT (LENGTH_MEASURE( 1.000000000000000082E-05 ), #130, 'distance_accuracy_value', 'NONE');
#128 = DIRECTION ( 'NONE',  ( -0.000000000000000000, -0.000000000000000000, -1.000000000000000000 ) ) ;
#129 = CIRCLE ( 'NONE', #12, 1.200000000000000178 ) ;
#130 =( LENGTH_UNIT ( ) NAMED_UNIT ( * ) SI_UNIT ( .MILLI., .METRE. ) );
#131 = VERTEX_POINT ( 'NONE', #84 ) ;
#132 = CC_DESIGN_DATE_AND_TIME_ASSIGNMENT ( #251, #145, ( #125 ) ) ;
#133 = APPLICATION_PROTOCOL_DEFINITION ( 'international standard', 'config_control_design', 1994, #288 ) ;
#134 = PRODUCT_DEFINITION_FORMATION_WITH_SPECIFIED_SOURCE ( 'LIBOVOLNÝ', '', #186, .NOT_KNOWN. ) ;
#135 = PERSON_AND_ORGANIZATION_ROLE ( 'design_supplier' ) ;
#136 = ORIENTED_EDGE ( 'NONE', *, *, #255, .T. ) ;
#137 = MECHANICAL_CONTEXT ( 'NONE', #288, 'mechanical' ) ;
#138 = DIRECTION ( 'NONE',  ( -0.000000000000000000, -0.000000000000000000, -1.000000000000000000 ) ) ;
#139 = CARTESIAN_POINT ( 'NONE',  ( -1.200000000000000178, 1.469576158976823799E-16, 2.199999999999993516 ) ) ;
#140 = TOROIDAL_SURFACE ( 'NONE', #225, 1.200000000000000178, 0.2000000000000000111 ) ;
#141 = EDGE_LOOP ( 'NONE', ( #166, #301, #164, #14 ) ) ;
#142 = CARTESIAN_POINT ( 'NONE',  ( 0.000000000000000000, 0.000000000000000000, 0.000000000000000000 ) ) ;
#143 = DIRECTION ( 'NONE',  ( 1.224646799147353207E-16, 1.000000000000000000, -0.000000000000000000 ) ) ;
#144 = AXIS2_PLACEMENT_3D ( 'NONE', #67, #26, #23 ) ;
#145 = DATE_TIME_ROLE ( 'classification_date' ) ;
#146 = DIRECTION ( 'NONE',  ( -0.000000000000000000, -0.000000000000000000, -1.000000000000000000 ) ) ;
#147 = EDGE_CURVE ( 'NONE', #131, #18, #189, .T. ) ;
#148 = DIRECTION ( 'NONE',  ( -0.000000000000000000, -0.000000000000000000, -1.000000000000000000 ) ) ;
#149 = LINE ( 'NONE', #156, #220 ) ;
#150 = PRODUCT_DEFINITION ( 'NEZNÁMÝ', '', #134, #82 ) ;
#151 = CLOSED_SHELL ( 'NONE', ( #223, #293, #88, #75, #98, #199, #260, #185, #240 ) ) ;
#152 = CIRCLE ( 'NONE', #144, 0.2000000000000000944 ) ;
#153 = DIRECTION ( 'NONE',  ( 0.000000000000000000, 0.000000000000000000, 1.000000000000000000 ) ) ;
#154 = PLANE ( 'NONE',  #224 ) ;
#155 = EDGE_CURVE ( 'NONE', #61, #246, #105, .T. ) ;
#156 = CARTESIAN_POINT ( 'NONE',  ( 1.000000000000000000, 1.224646799147353207E-16, 102.0000000000000142 ) ) ;
#157 = CIRCLE ( 'NONE', #55, 0.2000000000000000944 ) ;
#158 = ORIENTED_EDGE ( 'NONE', *, *, #147, .F. ) ;
#159 = AXIS2_PLACEMENT_3D ( 'NONE', #173, #148, #264 ) ;
#160 = ORIENTED_EDGE ( 'NONE', *, *, #107, .F. ) ;
#161 = ORIENTED_EDGE ( 'NONE', *, *, #107, .T. ) ;
#162 = LOCAL_TIME ( 12, 36, 17.00000000000000000, #25 ) ;
#163 = EDGE_LOOP ( 'NONE', ( #120, #44 ) ) ;
#164 = ORIENTED_EDGE ( 'NONE', *, *, #202, .T. ) ;
#165 = ADVANCED_BREP_SHAPE_REPRESENTATION ( 'a31e', ( #287, #101 ), #178 ) ;
#166 = ORIENTED_EDGE ( 'NONE', *, *, #13, .F. ) ;
#167 = VERTEX_POINT ( 'NONE', #266 ) ;
#168 = CC_DESIGN_APPROVAL ( #94, ( #125 ) ) ;
#169 = FACE_BOUND ( 'NONE', #63, .T. ) ;
#170 = COORDINATED_UNIVERSAL_TIME_OFFSET ( 1, 0, .AHEAD. ) ;
#171 = ORIENTED_EDGE ( 'NONE', *, *, #56, .F. ) ;
#172 = CYLINDRICAL_SURFACE ( 'NONE', #159, 1.000000000000000000 ) ;
#173 = CARTESIAN_POINT ( 'NONE',  ( 0.000000000000000000, 0.000000000000000000, 102.0000000000000142 ) ) ;
#174 = DIRECTION ( 'NONE',  ( 0.000000000000000000, 0.000000000000000000, 1.000000000000000000 ) ) ;
#175 = CARTESIAN_POINT ( 'NONE',  ( 0.000000000000000000, 0.000000000000000000, 102.0000000000000142 ) ) ;
#176 = DIRECTION ( 'NONE',  ( 0.000000000000000000, 0.000000000000000000, 1.000000000000000000 ) ) ;
#177 = ORIENTED_EDGE ( 'NONE', *, *, #123, .T. ) ;
#178 =( GEOMETRIC_REPRESENTATION_CONTEXT ( 3 ) GLOBAL_UNCERTAINTY_ASSIGNED_CONTEXT ( ( #127 ) ) GLOBAL_UNIT_ASSIGNED_CONTEXT ( ( #130, #62, #15 ) ) REPRESENTATION_CONTEXT ( 'NONE', 'WORKASPACE' ) );
#179 = ORIENTED_EDGE ( 'NONE', *, *, #41, .T. ) ;
#180 = AXIS2_PLACEMENT_3D ( 'NONE', #36, #153, #78 ) ;
#181 = CARTESIAN_POINT ( 'NONE',  ( 2.000000000000000000, 2.449293598294706414E-16, 2.000000000000000000 ) ) ;
#182 = ORIENTED_EDGE ( 'NONE', *, *, #37, .F. ) ;
#183 = COORDINATED_UNIVERSAL_TIME_OFFSET ( 1, 0, .AHEAD. ) ;
#184 = ORIENTED_EDGE ( 'NONE', *, *, #56, .T. ) ;
#185 = ADVANCED_FACE ( 'NONE', ( #3 ), #154, .T. ) ;
#186 = PRODUCT ( 'a31e', 'a31e', '', ( #137 ) ) ;
#187 = AXIS2_PLACEMENT_3D ( 'NONE', #299, #146, #252 ) ;
#188 = CALENDAR_DATE ( 2022, 7, 7 ) ;
#189 = CIRCLE ( 'NONE', #52, 2.000000000000000000 ) ;
#190 = DIRECTION ( 'NONE',  ( 0.000000000000000000, 0.000000000000000000, 1.000000000000000000 ) ) ;
#191 = CIRCLE ( 'NONE', #57, 2.000000000000000000 ) ;
#192 = DIRECTION ( 'NONE',  ( -0.000000000000000000, -0.000000000000000000, -1.000000000000000000 ) ) ;
#193 = CARTESIAN_POINT ( 'NONE',  ( 0.000000000000000000, 0.000000000000000000, 2.000000000000000000 ) ) ;
#194 = CIRCLE ( 'NONE', #218, 2.000000000000000000 ) ;
#195 = DIRECTION ( 'NONE',  ( 1.000000000000000000, 0.000000000000000000, 0.000000000000000000 ) ) ;
#196 = CARTESIAN_POINT ( 'NONE',  ( 1.000000000000000000, 1.224646799147353207E-16, 2.199999999999993516 ) ) ;
#197 = CARTESIAN_POINT ( 'NONE',  ( 0.000000000000000000, 0.000000000000000000, 2.199999999999993516 ) ) ;
#198 = LOCAL_TIME ( 12, 36, 17.00000000000000000, #89 ) ;
#199 = ADVANCED_FACE ( 'NONE', ( #6 ), #219, .F. ) ;
#200 = EDGE_LOOP ( 'NONE', ( #250, #273 ) ) ;
#201 = ORIENTED_EDGE ( 'NONE', *, *, #226, .F. ) ;
#202 = EDGE_CURVE ( 'NONE', #18, #167, #270, .T. ) ;
#203 = COORDINATED_UNIVERSAL_TIME_OFFSET ( 1, 0, .AHEAD. ) ;
#204 = CARTESIAN_POINT ( 'NONE',  ( 0.000000000000000000, 0.000000000000000000, 102.0000000000000142 ) ) ;
#205 = EDGE_CURVE ( 'NONE', #18, #131, #191, .T. ) ;
#206 = CARTESIAN_POINT ( 'NONE',  ( 0.000000000000000000, 0.000000000000000000, 2.000000000000000000 ) ) ;
#207 = PERSON_AND_ORGANIZATION ( #8, #21 ) ;
#208 = ORIENTED_EDGE ( 'NONE', *, *, #41, .F. ) ;
#209 = APPROVAL_STATUS ( 'not_yet_approved' ) ;
#210 = DIRECTION ( 'NONE',  ( 1.000000000000000000, 0.000000000000000000, 0.000000000000000000 ) ) ;
#211 = CC_DESIGN_PERSON_AND_ORGANIZATION_ASSIGNMENT ( #71, #27, ( #134 ) ) ;
#212 = APPROVAL_DATE_TIME ( #19, #81 ) ;
#213 = DIRECTION ( 'NONE',  ( -1.000000000000000000, 1.224646799147351975E-16, 0.000000000000000000 ) ) ;
#214 = VECTOR ( 'NONE', #289, 1000.000000000000000 ) ;
#215 = LINE ( 'NONE', #1, #256 ) ;
#216 = DATE_AND_TIME ( #261, #274 ) ;
#217 = CARTESIAN_POINT ( 'NONE',  ( 1.200000000000000178, 0.000000000000000000, 1.999999999999996669 ) ) ;
#218 = AXIS2_PLACEMENT_3D ( 'NONE', #90, #97, #210 ) ;
#219 = PLANE ( 'NONE',  #263 ) ;
#220 = VECTOR ( 'NONE', #128, 1000.000000000000000 ) ;
#221 = CARTESIAN_POINT ( 'NONE',  ( -2.000000000000000000, 0.000000000000000000, 2.000000000000000000 ) ) ;
#222 = DIRECTION ( 'NONE',  ( 1.000000000000000000, 0.000000000000000000, 0.000000000000000000 ) ) ;
#223 = ADVANCED_FACE ( 'NONE', ( #122 ), #9, .F. ) ;
#224 = AXIS2_PLACEMENT_3D ( 'NONE', #175, #286, #53 ) ;
#225 = AXIS2_PLACEMENT_3D ( 'NONE', #268, #241, #222 ) ;
#226 = EDGE_CURVE ( 'NONE', #246, #233, #149, .T. ) ;
#227 = PERSON_AND_ORGANIZATION ( #8, #21 ) ;
#228 = ORIENTED_EDGE ( 'NONE', *, *, #267, .T. ) ;
#229 = FACE_OUTER_BOUND ( 'NONE', #141, .T. ) ;
#230 = PERSON_AND_ORGANIZATION_ROLE ( 'design_owner' ) ;
#231 = DIRECTION ( 'NONE',  ( 1.000000000000000000, 0.000000000000000000, 0.000000000000000000 ) ) ;
#232 = PERSON_AND_ORGANIZATION ( #8, #21 ) ;
#233 = VERTEX_POINT ( 'NONE', #196 ) ;
#234 = APPLICATION_PROTOCOL_DEFINITION ( 'international standard', 'config_control_design', 1994, #257 ) ;
#235 = ORIENTED_EDGE ( 'NONE', *, *, #147, .T. ) ;
#236 = PERSON_AND_ORGANIZATION ( #8, #21 ) ;
#237 = DIRECTION ( 'NONE',  ( 1.000000000000000000, 0.000000000000000000, 0.000000000000000000 ) ) ;
#238 = AXIS2_PLACEMENT_3D ( 'NONE', #121, #34, #33 ) ;
#239 = DIRECTION ( 'NONE',  ( 0.000000000000000000, 0.000000000000000000, 1.000000000000000000 ) ) ;
#240 = ADVANCED_FACE ( 'NONE', ( #245 ), #140, .F. ) ;
#241 = DIRECTION ( 'NONE',  ( 0.000000000000000000, 0.000000000000000000, 1.000000000000000000 ) ) ;
#242 = AXIS2_PLACEMENT_3D ( 'NONE', #197, #35, #103 ) ;
#243 = CARTESIAN_POINT ( 'NONE',  ( 0.000000000000000000, 0.000000000000000000, 0.000000000000000000 ) ) ;
#244 = CC_DESIGN_PERSON_AND_ORGANIZATION_ASSIGNMENT ( #232, #230, ( #186 ) ) ;
#245 = FACE_OUTER_BOUND ( 'NONE', #116, .T. ) ;
#246 = VERTEX_POINT ( 'NONE', #80 ) ;
#247 = CC_DESIGN_DATE_AND_TIME_ASSIGNMENT ( #117, #73, ( #150 ) ) ;
#248 = CIRCLE ( 'NONE', #69, 1.000000000000000000 ) ;
#249 = ORIENTED_EDGE ( 'NONE', *, *, #202, .F. ) ;
#250 = ORIENTED_EDGE ( 'NONE', *, *, #24, .F. ) ;
#251 = DATE_AND_TIME ( #297, #64 ) ;
#252 = DIRECTION ( 'NONE',  ( -1.000000000000000000, 0.000000000000000000, 0.000000000000000000 ) ) ;
#253 = ORIENTED_EDGE ( 'NONE', *, *, #2, .F. ) ;
#254 = AXIS2_PLACEMENT_3D ( 'NONE', #206, #192, #93 ) ;
#255 = EDGE_CURVE ( 'NONE', #112, #167, #4, .T. ) ;
#256 = VECTOR ( 'NONE', #124, 1000.000000000000000 ) ;
#257 = APPLICATION_CONTEXT ( 'configuration controlled 3d designs of mechanical parts and assemblies' ) ;
#258 = FACE_OUTER_BOUND ( 'NONE', #296, .T. ) ;
#259 = DIRECTION ( 'NONE',  ( 1.000000000000000000, 0.000000000000000000, -0.000000000000000000 ) ) ;
#260 = ADVANCED_FACE ( 'NONE', ( #285 ), #54, .T. ) ;
#261 = CALENDAR_DATE ( 2022, 7, 7 ) ;
#262 = ORIENTED_EDGE ( 'NONE', *, *, #226, .T. ) ;
#263 = AXIS2_PLACEMENT_3D ( 'NONE', #243, #174, #126 ) ;
#264 = DIRECTION ( 'NONE',  ( -1.000000000000000000, 0.000000000000000000, 0.000000000000000000 ) ) ;
#265 = CARTESIAN_POINT ( 'NONE',  ( 0.000000000000000000, 0.000000000000000000, 2.000000000000000000 ) ) ;
#266 = CARTESIAN_POINT ( 'NONE',  ( -2.000000000000000000, 0.000000000000000000, 0.000000000000000000 ) ) ;
#267 = EDGE_CURVE ( 'NONE', #61, #38, #215, .T. ) ;
#268 = CARTESIAN_POINT ( 'NONE',  ( 0.000000000000000000, 0.000000000000000000, 2.199999999999993516 ) ) ;
#269 = LOCAL_TIME ( 12, 36, 17.00000000000000000, #183 ) ;
#270 = LINE ( 'NONE', #221, #214 ) ;
#271 = EDGE_LOOP ( 'NONE', ( #171, #283, #11, #208 ) ) ;
#272 = CC_DESIGN_PERSON_AND_ORGANIZATION_ASSIGNMENT ( #207, #300, ( #150 ) ) ;
#273 = ORIENTED_EDGE ( 'NONE', *, *, #255, .F. ) ;
#274 = LOCAL_TIME ( 12, 36, 17.00000000000000000, #170 ) ;
#275 = SECURITY_CLASSIFICATION_LEVEL ( 'unclassified' ) ;
#276 = VERTEX_POINT ( 'NONE', #217 ) ;
#277 = CARTESIAN_POINT ( 'NONE',  ( -2.000000000000000000, 0.000000000000000000, 2.000000000000000000 ) ) ;
#278 = CALENDAR_DATE ( 2022, 7, 7 ) ;
#279 = CARTESIAN_POINT ( 'NONE',  ( -1.000000000000000000, 0.000000000000000000, 102.0000000000000142 ) ) ;
#280 = DATE_AND_TIME ( #188, #198 ) ;
#281 = CARTESIAN_POINT ( 'NONE',  ( -1.000000000000000000, 0.000000000000000000, 2.199999999999993516 ) ) ;
#282 = PERSON_AND_ORGANIZATION ( #8, #21 ) ;
#283 = ORIENTED_EDGE ( 'NONE', *, *, #2, .T. ) ;
#284 = SHAPE_DEFINITION_REPRESENTATION ( #42, #165 ) ;
#285 = FACE_OUTER_BOUND ( 'NONE', #16, .T. ) ;
#286 = DIRECTION ( 'NONE',  ( 0.000000000000000000, 0.000000000000000000, 1.000000000000000000 ) ) ;
#287 = MANIFOLD_SOLID_BREP ( 'Zaoblit1', #151 ) ;
#288 = APPLICATION_CONTEXT ( 'configuration controlled 3d designs of mechanical parts and assemblies' ) ;
#289 = DIRECTION ( 'NONE',  ( -0.000000000000000000, -0.000000000000000000, -1.000000000000000000 ) ) ;
#290 = CIRCLE ( 'NONE', #85, 1.000000000000000000 ) ;
#291 = DIRECTION ( 'NONE',  ( 1.000000000000000000, 0.000000000000000000, 0.000000000000000000 ) ) ;
#292 = CC_DESIGN_APPROVAL ( #81, ( #150 ) ) ;
#293 = ADVANCED_FACE ( 'NONE', ( #77 ), #172, .T. ) ;
#294 = ORIENTED_EDGE ( 'NONE', *, *, #267, .F. ) ;
#295 = APPROVAL_PERSON_ORGANIZATION ( #236, #94, #31 ) ;
#296 = EDGE_LOOP ( 'NONE', ( #158, #110, #136, #249 ) ) ;
#297 = CALENDAR_DATE ( 2022, 7, 7 ) ;
#298 = DIRECTION ( 'NONE',  ( -0.000000000000000000, -0.000000000000000000, -1.000000000000000000 ) ) ;
#299 = CARTESIAN_POINT ( 'NONE',  ( 0.000000000000000000, 0.000000000000000000, 2.000000000000000000 ) ) ;
#300 = PERSON_AND_ORGANIZATION_ROLE ( 'creator' ) ;
#301 = ORIENTED_EDGE ( 'NONE', *, *, #205, .F. ) ;
#302 = APPROVAL_ROLE ( '' ) ;
#303 = VECTOR ( 'NONE', #138, 1000.000000000000000 ) ;
#304 = ORIENTED_EDGE ( 'NONE', *, *, #205, .T. ) ;
#305 = EDGE_CURVE ( 'NONE', #233, #38, #106, .T. ) ;
#306 = PERSON_AND_ORGANIZATION ( #8, #21 ) ;
#307 = CARTESIAN_POINT ( 'NONE',  ( -1.200000000000000178, 1.469576158976823799E-16, 1.999999999999996669 ) ) ;
ENDSEC;
END-ISO-10303-21;
