ISO-10303-21;
HEADER;
FILE_DESCRIPTION (( 'STEP AP203' ),
    '1' );
FILE_NAME ('7f35.STEP',
    '2022-07-07T10:21:00',
    ( '' ),
    ( '' ),
    'SwSTEP 2.0',
    'SolidWorks 2019',
    '' );
FILE_SCHEMA (( 'CONFIG_CONTROL_DESIGN' ));
ENDSEC;

DATA;
#1 = APPROVAL_STATUS ( 'not_yet_approved' ) ;
#2 = EDGE_CURVE ( 'NONE', #16, #145, #153, .T. ) ;
#3 = DIRECTION ( 'NONE',  ( 1.000000000000000000, 0.000000000000000000, -0.000000000000000000 ) ) ;
#4 = CC_DESIGN_APPROVAL ( #202, ( #106 ) ) ;
#5 = DIRECTION ( 'NONE',  ( -1.000000000000000000, 0.000000000000000000, 0.000000000000000000 ) ) ;
#6 = CC_DESIGN_DATE_AND_TIME_ASSIGNMENT ( #129, #53, ( #95 ) ) ;
#7 = EDGE_CURVE ( 'NONE', #145, #16, #59, .T. ) ;
#8 = CARTESIAN_POINT ( 'NONE',  ( -4.000000000000000000, 0.000000000000000000, 0.000000000000000000 ) ) ;
#9 = EDGE_CURVE ( 'NONE', #118, #264, #130, .T. ) ;
#10 = FACE_BOUND ( 'NONE', #119, .T. ) ;
#11 = EDGE_LOOP ( 'NONE', ( #189, #278, #19, #77 ) ) ;
#12 = CC_DESIGN_SECURITY_CLASSIFICATION ( #95, ( #106 ) ) ;
#13 = ORIENTED_EDGE ( 'NONE', *, *, #267, .T. ) ;
#14 = EDGE_CURVE ( 'NONE', #264, #16, #47, .T. ) ;
#15 = DIRECTION ( 'NONE',  ( 1.000000000000000000, 0.000000000000000000, 0.000000000000000000 ) ) ;
#16 = VERTEX_POINT ( 'NONE', #24 ) ;
#17 = PERSON_AND_ORGANIZATION_ROLE ( 'creator' ) ;
#18 = AXIS2_PLACEMENT_3D ( 'NONE', #206, #233, #288 ) ;
#19 = ORIENTED_EDGE ( 'NONE', *, *, #2, .T. ) ;
#20 = ADVANCED_FACE ( 'NONE', ( #242 ), #54, .F. ) ;
#21 = DIRECTION ( 'NONE',  ( 1.000000000000000000, 0.000000000000000000, 0.000000000000000000 ) ) ;
#22 = DIRECTION ( 'NONE',  ( -0.000000000000000000, -0.000000000000000000, -1.000000000000000000 ) ) ;
#23 = CARTESIAN_POINT ( 'NONE',  ( 0.000000000000000000, 0.000000000000000000, 0.000000000000000000 ) ) ;
#24 = CARTESIAN_POINT ( 'NONE',  ( 4.000000000000000000, 4.898587196589412829E-16, 0.000000000000000000 ) ) ;
#25 =( LENGTH_UNIT ( ) NAMED_UNIT ( * ) SI_UNIT ( .MILLI., .METRE. ) );
#26 = CC_DESIGN_PERSON_AND_ORGANIZATION_ASSIGNMENT ( #43, #17, ( #80 ) ) ;
#27 = CIRCLE ( 'NONE', #252, 0.2000000000000000944 ) ;
#28 = ADVANCED_BREP_SHAPE_REPRESENTATION ( '7f35', ( #225, #306 ), #117 ) ;
#29 = PERSON_AND_ORGANIZATION_ROLE ( 'creator' ) ;
#30 = AXIS2_PLACEMENT_3D ( 'NONE', #243, #303, #102 ) ;
#31 = COORDINATED_UNIVERSAL_TIME_OFFSET ( 1, 0, .AHEAD. ) ;
#32 = CIRCLE ( 'NONE', #151, 2.250000000000000000 ) ;
#33 = CARTESIAN_POINT ( 'NONE',  ( 2.250000000000000000, 2.755455298081544285E-16, 803.0000000000000000 ) ) ;
#34 = LINE ( 'NONE', #133, #126 ) ;
#35 = ADVANCED_FACE ( 'NONE', ( #100 ), #279, .T. ) ;
#36 = DIRECTION ( 'NONE',  ( -1.000000000000000000, 0.000000000000000000, 0.000000000000000000 ) ) ;
#37 = EDGE_LOOP ( 'NONE', ( #261, #184, #13, #257 ) ) ;
#38 = CIRCLE ( 'NONE', #88, 2.449999999999999734 ) ;
#39 = DIRECTION ( 'NONE',  ( -1.000000000000000000, 0.000000000000000000, 0.000000000000000000 ) ) ;
#40 = ORIENTED_EDGE ( 'NONE', *, *, #209, .T. ) ;
#41 = CIRCLE ( 'NONE', #30, 2.250000000000000000 ) ;
#42 = ORIENTED_EDGE ( 'NONE', *, *, #49, .F. ) ;
#43 = PERSON_AND_ORGANIZATION ( #210, #295 ) ;
#44 = DIRECTION ( 'NONE',  ( 1.000000000000000000, 0.000000000000000000, 0.000000000000000000 ) ) ;
#45 = CARTESIAN_POINT ( 'NONE',  ( -2.250000000000000000, 0.000000000000000000, 803.0000000000000000 ) ) ;
#46 = DIRECTION ( 'NONE',  ( -1.000000000000000000, 0.000000000000000000, 0.000000000000000000 ) ) ;
#47 = LINE ( 'NONE', #148, #296 ) ;
#48 = LINE ( 'NONE', #260, #76 ) ;
#49 = EDGE_CURVE ( 'NONE', #87, #166, #41, .T. ) ;
#50 = CARTESIAN_POINT ( 'NONE',  ( 0.000000000000000000, 0.000000000000000000, 0.000000000000000000 ) ) ;
#51 = CC_DESIGN_APPROVAL ( #231, ( #95 ) ) ;
#52 = SHAPE_DEFINITION_REPRESENTATION ( #248, #28 ) ;
#53 = DATE_TIME_ROLE ( 'classification_date' ) ;
#54 = TOROIDAL_SURFACE ( 'NONE', #173, 2.449999999999999734, 0.2000000000000000111 ) ;
#55 = PERSON_AND_ORGANIZATION ( #210, #295 ) ;
#56 = EDGE_CURVE ( 'NONE', #142, #207, #38, .T. ) ;
#57 = PERSON_AND_ORGANIZATION ( #210, #295 ) ;
#58 = DIRECTION ( 'NONE',  ( 0.000000000000000000, 0.000000000000000000, 1.000000000000000000 ) ) ;
#59 = CIRCLE ( 'NONE', #196, 4.000000000000000000 ) ;
#60 = CARTESIAN_POINT ( 'NONE',  ( 0.000000000000000000, 0.000000000000000000, 3.000000000000000000 ) ) ;
#61 = ADVANCED_FACE ( 'NONE', ( #250 ), #235, .T. ) ;
#62 = PLANE ( 'NONE',  #124 ) ;
#63 = DIRECTION ( 'NONE',  ( -0.000000000000000000, -0.000000000000000000, -1.000000000000000000 ) ) ;
#64 = AXIS2_PLACEMENT_3D ( 'NONE', #216, #240, #44 ) ;
#65 = ORIENTED_EDGE ( 'NONE', *, *, #2, .F. ) ;
#66 = AXIS2_PLACEMENT_3D ( 'NONE', #171, #265, #143 ) ;
#67 = EDGE_LOOP ( 'NONE', ( #163, #293 ) ) ;
#68 = CC_DESIGN_PERSON_AND_ORGANIZATION_ASSIGNMENT ( #57, #29, ( #106 ) ) ;
#69 = APPLICATION_PROTOCOL_DEFINITION ( 'international standard', 'config_control_design', 1994, #222 ) ;
#70 = EDGE_CURVE ( 'NONE', #118, #145, #34, .T. ) ;
#71 = APPLICATION_CONTEXT ( 'configuration controlled 3d designs of mechanical parts and assemblies' ) ;
#72 = DIRECTION ( 'NONE',  ( 1.000000000000000000, 0.000000000000000000, 0.000000000000000000 ) ) ;
#73 = APPROVAL_STATUS ( 'not_yet_approved' ) ;
#74 = DIRECTION ( 'NONE',  ( 0.000000000000000000, 0.000000000000000000, 1.000000000000000000 ) ) ;
#75 = DIRECTION ( 'NONE',  ( 1.000000000000000000, 0.000000000000000000, 0.000000000000000000 ) ) ;
#76 = VECTOR ( 'NONE', #280, 1000.000000000000000 ) ;
#77 = ORIENTED_EDGE ( 'NONE', *, *, #70, .F. ) ;
#78 = CARTESIAN_POINT ( 'NONE',  ( 4.000000000000000000, 4.898587196589412829E-16, 3.000000000000000000 ) ) ;
#79 = ORIENTED_EDGE ( 'NONE', *, *, #298, .T. ) ;
#80 = PRODUCT_DEFINITION ( 'NEZNÁMÝ', '', #106, #185 ) ;
#81 = COORDINATED_UNIVERSAL_TIME_OFFSET ( 1, 0, .AHEAD. ) ;
#82 = LOCAL_TIME ( 12, 21, 0.000000000000000000, #194 ) ;
#83 = APPROVAL_PERSON_ORGANIZATION ( #192, #202, #169 ) ;
#84 = FACE_OUTER_BOUND ( 'NONE', #237, .T. ) ;
#85 = APPROVAL ( #300, 'NEURÈENÝ' ) ;
#86 = CARTESIAN_POINT ( 'NONE',  ( 0.000000000000000000, 0.000000000000000000, 3.000000000000000000 ) ) ;
#87 = VERTEX_POINT ( 'NONE', #131 ) ;
#88 = AXIS2_PLACEMENT_3D ( 'NONE', #191, #232, #203 ) ;
#89 = DIRECTION ( 'NONE',  ( 1.000000000000000000, 0.000000000000000000, -0.000000000000000000 ) ) ;
#90 = CYLINDRICAL_SURFACE ( 'NONE', #238, 4.000000000000000000 ) ;
#91 = CARTESIAN_POINT ( 'NONE',  ( 2.449999999999999734, 0.000000000000000000, 2.999999999999990674 ) ) ;
#92 = CC_DESIGN_APPROVAL ( #85, ( #80 ) ) ;
#93 = ORIENTED_EDGE ( 'NONE', *, *, #267, .F. ) ;
#94 = PRODUCT_RELATED_PRODUCT_CATEGORY ( 'detail', '', ( #158 ) ) ;
#95 = SECURITY_CLASSIFICATION ( '', '', #127 ) ;
#96 = EDGE_CURVE ( 'NONE', #166, #207, #297, .T. ) ;
#97 = PERSON_AND_ORGANIZATION_ROLE ( 'design_owner' ) ;
#98 = DIRECTION ( 'NONE',  ( 1.000000000000000000, 0.000000000000000000, 0.000000000000000000 ) ) ;
#99 = CARTESIAN_POINT ( 'NONE',  ( 0.000000000000000000, 0.000000000000000000, 3.199999999999980638 ) ) ;
#100 = FACE_OUTER_BOUND ( 'NONE', #244, .T. ) ;
#101 =( NAMED_UNIT ( * ) PLANE_ANGLE_UNIT ( ) SI_UNIT ( $, .RADIAN. ) );
#102 = DIRECTION ( 'NONE',  ( 1.000000000000000000, 0.000000000000000000, 0.000000000000000000 ) ) ;
#103 = CARTESIAN_POINT ( 'NONE',  ( -2.449999999999999734, 3.000384657911015370E-16, 3.199999999999980638 ) ) ;
#104 = AXIS2_PLACEMENT_3D ( 'NONE', #60, #274, #108 ) ;
#105 = DIRECTION ( 'NONE',  ( -0.000000000000000000, -0.000000000000000000, -1.000000000000000000 ) ) ;
#106 = PRODUCT_DEFINITION_FORMATION_WITH_SPECIFIED_SOURCE ( 'LIBOVOLNÝ', '', #158, .NOT_KNOWN. ) ;
#107 = DATE_AND_TIME ( #150, #82 ) ;
#108 = DIRECTION ( 'NONE',  ( 1.000000000000000000, 0.000000000000000000, 0.000000000000000000 ) ) ;
#109 = FACE_OUTER_BOUND ( 'NONE', #67, .T. ) ;
#110 = CARTESIAN_POINT ( 'NONE',  ( 0.000000000000000000, 0.000000000000000000, 3.000000000000000000 ) ) ;
#111 = CARTESIAN_POINT ( 'NONE',  ( 0.000000000000000000, 0.000000000000000000, 803.0000000000000000 ) ) ;
#112 = CC_DESIGN_PERSON_AND_ORGANIZATION_ASSIGNMENT ( #147, #97, ( #158 ) ) ;
#113 = ORIENTED_EDGE ( 'NONE', *, *, #146, .T. ) ;
#114 = ORIENTED_EDGE ( 'NONE', *, *, #180, .F. ) ;
#115 = ORIENTED_EDGE ( 'NONE', *, *, #96, .T. ) ;
#116 = COORDINATED_UNIVERSAL_TIME_OFFSET ( 1, 0, .AHEAD. ) ;
#117 =( GEOMETRIC_REPRESENTATION_CONTEXT ( 3 ) GLOBAL_UNCERTAINTY_ASSIGNED_CONTEXT ( ( #135 ) ) GLOBAL_UNIT_ASSIGNED_CONTEXT ( ( #25, #101, #141 ) ) REPRESENTATION_CONTEXT ( 'NONE', 'WORKASPACE' ) );
#118 = VERTEX_POINT ( 'NONE', #286 ) ;
#119 = EDGE_LOOP ( 'NONE', ( #214, #205 ) ) ;
#120 = DATE_AND_TIME ( #167, #228 ) ;
#121 = ADVANCED_FACE ( 'NONE', ( #230 ), #249, .F. ) ;
#122 = ORIENTED_EDGE ( 'NONE', *, *, #96, .F. ) ;
#123 = DIRECTION ( 'NONE',  ( 1.000000000000000000, 0.000000000000000000, 0.000000000000000000 ) ) ;
#124 = AXIS2_PLACEMENT_3D ( 'NONE', #110, #291, #89 ) ;
#125 = AXIS2_PLACEMENT_3D ( 'NONE', #111, #159, #251 ) ;
#126 = VECTOR ( 'NONE', #134, 1000.000000000000000 ) ;
#127 = SECURITY_CLASSIFICATION_LEVEL ( 'unclassified' ) ;
#128 = LOCAL_TIME ( 12, 21, 0.000000000000000000, #116 ) ;
#129 = DATE_AND_TIME ( #229, #186 ) ;
#130 = CIRCLE ( 'NONE', #64, 4.000000000000000000 ) ;
#131 = CARTESIAN_POINT ( 'NONE',  ( -2.250000000000000000, 0.000000000000000000, 3.199999999999980638 ) ) ;
#132 = CC_DESIGN_DATE_AND_TIME_ASSIGNMENT ( #302, #304, ( #80 ) ) ;
#133 = CARTESIAN_POINT ( 'NONE',  ( -4.000000000000000000, 0.000000000000000000, 3.000000000000000000 ) ) ;
#134 = DIRECTION ( 'NONE',  ( -0.000000000000000000, -0.000000000000000000, -1.000000000000000000 ) ) ;
#135 = UNCERTAINTY_MEASURE_WITH_UNIT (LENGTH_MEASURE( 1.000000000000000082E-05 ), #25, 'distance_accuracy_value', 'NONE');
#136 = ADVANCED_FACE ( 'NONE', ( #10, #109 ), #62, .T. ) ;
#137 = CARTESIAN_POINT ( 'NONE',  ( 0.000000000000000000, 0.000000000000000000, 0.000000000000000000 ) ) ;
#138 = EDGE_LOOP ( 'NONE', ( #266, #65 ) ) ;
#139 = EDGE_LOOP ( 'NONE', ( #172, #79 ) ) ;
#140 = AXIS2_PLACEMENT_3D ( 'NONE', #99, #263, #75 ) ;
#141 =( NAMED_UNIT ( * ) SI_UNIT ( $, .STERADIAN. ) SOLID_ANGLE_UNIT ( ) );
#142 = VERTEX_POINT ( 'NONE', #181 ) ;
#143 = DIRECTION ( 'NONE',  ( 1.000000000000000000, 0.000000000000000000, 0.000000000000000000 ) ) ;
#144 = CARTESIAN_POINT ( 'NONE',  ( 0.000000000000000000, 0.000000000000000000, 0.000000000000000000 ) ) ;
#145 = VERTEX_POINT ( 'NONE', #8 ) ;
#146 = EDGE_CURVE ( 'NONE', #234, #166, #162, .T. ) ;
#147 = PERSON_AND_ORGANIZATION ( #210, #295 ) ;
#148 = CARTESIAN_POINT ( 'NONE',  ( 4.000000000000000000, 4.898587196589412829E-16, 3.000000000000000000 ) ) ;
#149 = DIRECTION ( 'NONE',  ( -1.000000000000000000, 1.224646799147353207E-16, 0.000000000000000000 ) ) ;
#150 = CALENDAR_DATE ( 2022, 7, 7 ) ;
#151 = AXIS2_PLACEMENT_3D ( 'NONE', #174, #245, #21 ) ;
#152 = EDGE_CURVE ( 'NONE', #264, #118, #195, .T. ) ;
#153 = CIRCLE ( 'NONE', #164, 4.000000000000000000 ) ;
#154 = DATE_AND_TIME ( #226, #224 ) ;
#155 = CARTESIAN_POINT ( 'NONE',  ( 0.000000000000000000, 0.000000000000000000, 3.000000000000000000 ) ) ;
#156 = CARTESIAN_POINT ( 'NONE',  ( 0.000000000000000000, 0.000000000000000000, 3.000000000000000000 ) ) ;
#157 = ORIENTED_EDGE ( 'NONE', *, *, #9, .F. ) ;
#158 = PRODUCT ( '7f35', '7f35', '', ( #258 ) ) ;
#159 = DIRECTION ( 'NONE',  ( 0.000000000000000000, 0.000000000000000000, 1.000000000000000000 ) ) ;
#160 = ORIENTED_EDGE ( 'NONE', *, *, #14, .F. ) ;
#161 = VECTOR ( 'NONE', #178, 1000.000000000000000 ) ;
#162 = LINE ( 'NONE', #33, #161 ) ;
#163 = ORIENTED_EDGE ( 'NONE', *, *, #9, .T. ) ;
#164 = AXIS2_PLACEMENT_3D ( 'NONE', #144, #212, #72 ) ;
#165 = ADVANCED_FACE ( 'NONE', ( #272 ), #273, .T. ) ;
#166 = VERTEX_POINT ( 'NONE', #198 ) ;
#167 = CALENDAR_DATE ( 2022, 7, 7 ) ;
#168 = ORIENTED_EDGE ( 'NONE', *, *, #298, .F. ) ;
#169 = APPROVAL_ROLE ( '' ) ;
#170 = CARTESIAN_POINT ( 'NONE',  ( 0.000000000000000000, 0.000000000000000000, 803.0000000000000000 ) ) ;
#171 = CARTESIAN_POINT ( 'NONE',  ( 0.000000000000000000, 0.000000000000000000, 803.0000000000000000 ) ) ;
#172 = ORIENTED_EDGE ( 'NONE', *, *, #285, .T. ) ;
#173 = AXIS2_PLACEMENT_3D ( 'NONE', #217, #190, #305 ) ;
#174 = CARTESIAN_POINT ( 'NONE',  ( 0.000000000000000000, 0.000000000000000000, 803.0000000000000000 ) ) ;
#175 = ORIENTED_EDGE ( 'NONE', *, *, #268, .T. ) ;
#176 = CARTESIAN_POINT ( 'NONE',  ( 0.000000000000000000, 0.000000000000000000, 803.0000000000000000 ) ) ;
#177 = DIRECTION ( 'NONE',  ( 1.000000000000000000, 0.000000000000000000, 0.000000000000000000 ) ) ;
#178 = DIRECTION ( 'NONE',  ( -0.000000000000000000, -0.000000000000000000, -1.000000000000000000 ) ) ;
#179 = ADVANCED_FACE ( 'NONE', ( #84 ), #90, .T. ) ;
#180 = EDGE_CURVE ( 'NONE', #207, #142, #281, .T. ) ;
#181 = CARTESIAN_POINT ( 'NONE',  ( -2.449999999999999734, 3.000384657911015370E-16, 2.999999999999990674 ) ) ;
#182 = APPROVAL_PERSON_ORGANIZATION ( #213, #85, #218 ) ;
#183 = CARTESIAN_POINT ( 'NONE',  ( 0.000000000000000000, 0.000000000000000000, 3.199999999999980638 ) ) ;
#184 = ORIENTED_EDGE ( 'NONE', *, *, #285, .F. ) ;
#185 = DESIGN_CONTEXT ( 'detailed design', #71, 'design' ) ;
#186 = LOCAL_TIME ( 12, 21, 0.000000000000000000, #199 ) ;
#187 = APPLICATION_PROTOCOL_DEFINITION ( 'international standard', 'config_control_design', 1994, #71 ) ;
#188 = CLOSED_SHELL ( 'NONE', ( #20, #35, #61, #179, #136, #121, #197, #165, #227 ) ) ;
#189 = ORIENTED_EDGE ( 'NONE', *, *, #152, .F. ) ;
#190 = DIRECTION ( 'NONE',  ( 0.000000000000000000, 0.000000000000000000, 1.000000000000000000 ) ) ;
#191 = CARTESIAN_POINT ( 'NONE',  ( 0.000000000000000000, 0.000000000000000000, 3.000000000000000000 ) ) ;
#192 = PERSON_AND_ORGANIZATION ( #210, #295 ) ;
#193 = ORIENTED_EDGE ( 'NONE', *, *, #70, .T. ) ;
#194 = COORDINATED_UNIVERSAL_TIME_OFFSET ( 1, 0, .AHEAD. ) ;
#195 = CIRCLE ( 'NONE', #271, 4.000000000000000000 ) ;
#196 = AXIS2_PLACEMENT_3D ( 'NONE', #50, #74, #98 ) ;
#197 = ADVANCED_FACE ( 'NONE', ( #292 ), #253, .T. ) ;
#198 = CARTESIAN_POINT ( 'NONE',  ( 2.250000000000000000, 2.755455298081544285E-16, 3.199999999999980638 ) ) ;
#199 = COORDINATED_UNIVERSAL_TIME_OFFSET ( 1, 0, .AHEAD. ) ;
#200 = DIRECTION ( 'NONE',  ( -0.000000000000000000, -0.000000000000000000, -1.000000000000000000 ) ) ;
#201 = CIRCLE ( 'NONE', #66, 2.250000000000000000 ) ;
#202 = APPROVAL ( #73, 'NEURÈENÝ' ) ;
#203 = DIRECTION ( 'NONE',  ( 1.000000000000000000, 0.000000000000000000, 0.000000000000000000 ) ) ;
#204 = DIRECTION ( 'NONE',  ( -0.000000000000000000, -0.000000000000000000, -1.000000000000000000 ) ) ;
#205 = ORIENTED_EDGE ( 'NONE', *, *, #56, .T. ) ;
#206 = CARTESIAN_POINT ( 'NONE',  ( 2.449999999999999734, 0.000000000000000000, 3.199999999999980638 ) ) ;
#207 = VERTEX_POINT ( 'NONE', #91 ) ;
#208 = TOROIDAL_SURFACE ( 'NONE', #140, 2.449999999999999734, 0.2000000000000000111 ) ;
#209 = EDGE_CURVE ( 'NONE', #166, #87, #289, .T. ) ;
#210 = PERSON ( 'NEURÈENÝ', 'NEURÈENÝ', 'NEURÈENÝ', ('NEURÈENÝ'), ('NEURÈENÝ'), ('NEURÈENÝ') ) ;
#211 = DIRECTION ( 'NONE',  ( 0.000000000000000000, 0.000000000000000000, 1.000000000000000000 ) ) ;
#212 = DIRECTION ( 'NONE',  ( 0.000000000000000000, 0.000000000000000000, 1.000000000000000000 ) ) ;
#213 = PERSON_AND_ORGANIZATION ( #210, #295 ) ;
#214 = ORIENTED_EDGE ( 'NONE', *, *, #180, .T. ) ;
#215 = FACE_OUTER_BOUND ( 'NONE', #236, .T. ) ;
#216 = CARTESIAN_POINT ( 'NONE',  ( 0.000000000000000000, 0.000000000000000000, 3.000000000000000000 ) ) ;
#217 = CARTESIAN_POINT ( 'NONE',  ( 0.000000000000000000, 0.000000000000000000, 3.199999999999980638 ) ) ;
#218 = APPROVAL_ROLE ( '' ) ;
#219 = AXIS2_PLACEMENT_3D ( 'NONE', #183, #270, #15 ) ;
#220 = CC_DESIGN_PERSON_AND_ORGANIZATION_ASSIGNMENT ( #269, #246, ( #95 ) ) ;
#221 = AXIS2_PLACEMENT_3D ( 'NONE', #170, #22, #46 ) ;
#222 = APPLICATION_CONTEXT ( 'configuration controlled 3d designs of mechanical parts and assemblies' ) ;
#223 = APPROVAL_DATE_TIME ( #107, #202 ) ;
#224 = LOCAL_TIME ( 12, 21, 0.000000000000000000, #31 ) ;
#225 = MANIFOLD_SOLID_BREP ( 'Zaoblit1', #188 ) ;
#226 = CALENDAR_DATE ( 2022, 7, 7 ) ;
#227 = ADVANCED_FACE ( 'NONE', ( #215 ), #208, .F. ) ;
#228 = LOCAL_TIME ( 12, 21, 0.000000000000000000, #81 ) ;
#229 = CALENDAR_DATE ( 2022, 7, 7 ) ;
#230 = FACE_OUTER_BOUND ( 'NONE', #138, .T. ) ;
#231 = APPROVAL ( #1, 'NEURÈENÝ' ) ;
#232 = DIRECTION ( 'NONE',  ( -0.000000000000000000, -0.000000000000000000, -1.000000000000000000 ) ) ;
#233 = DIRECTION ( 'NONE',  ( 0.000000000000000000, -1.000000000000000000, 0.000000000000000000 ) ) ;
#234 = VERTEX_POINT ( 'NONE', #239 ) ;
#235 = CYLINDRICAL_SURFACE ( 'NONE', #290, 4.000000000000000000 ) ;
#236 = EDGE_LOOP ( 'NONE', ( #301, #283, #115, #254 ) ) ;
#237 = EDGE_LOOP ( 'NONE', ( #160, #157, #193, #259 ) ) ;
#238 = AXIS2_PLACEMENT_3D ( 'NONE', #156, #204, #36 ) ;
#239 = CARTESIAN_POINT ( 'NONE',  ( 2.250000000000000000, 2.755455298081544285E-16, 803.0000000000000000 ) ) ;
#240 = DIRECTION ( 'NONE',  ( 0.000000000000000000, 0.000000000000000000, 1.000000000000000000 ) ) ;
#241 = DIRECTION ( 'NONE',  ( 1.224646799147353207E-16, 1.000000000000000000, -0.000000000000000000 ) ) ;
#242 = FACE_OUTER_BOUND ( 'NONE', #255, .T. ) ;
#243 = CARTESIAN_POINT ( 'NONE',  ( 0.000000000000000000, 0.000000000000000000, 3.199999999999980638 ) ) ;
#244 = EDGE_LOOP ( 'NONE', ( #168, #113, #40, #93 ) ) ;
#245 = DIRECTION ( 'NONE',  ( 0.000000000000000000, 0.000000000000000000, 1.000000000000000000 ) ) ;
#246 = PERSON_AND_ORGANIZATION_ROLE ( 'classification_officer' ) ;
#247 = PERSON_AND_ORGANIZATION ( #210, #295 ) ;
#248 = PRODUCT_DEFINITION_SHAPE ( 'NONE', 'NONE',  #80 ) ;
#249 = PLANE ( 'NONE',  #262 ) ;
#250 = FACE_OUTER_BOUND ( 'NONE', #11, .T. ) ;
#251 = DIRECTION ( 'NONE',  ( 1.000000000000000000, 0.000000000000000000, -0.000000000000000000 ) ) ;
#252 = AXIS2_PLACEMENT_3D ( 'NONE', #103, #241, #149 ) ;
#253 = CYLINDRICAL_SURFACE ( 'NONE', #275, 2.250000000000000000 ) ;
#254 = ORIENTED_EDGE ( 'NONE', *, *, #56, .F. ) ;
#255 = EDGE_LOOP ( 'NONE', ( #42, #175, #114, #122 ) ) ;
#256 = APPROVAL_PERSON_ORGANIZATION ( #247, #231, #287 ) ;
#257 = ORIENTED_EDGE ( 'NONE', *, *, #49, .T. ) ;
#258 = MECHANICAL_CONTEXT ( 'NONE', #222, 'mechanical' ) ;
#259 = ORIENTED_EDGE ( 'NONE', *, *, #7, .T. ) ;
#260 = CARTESIAN_POINT ( 'NONE',  ( -2.250000000000000000, 0.000000000000000000, 803.0000000000000000 ) ) ;
#261 = ORIENTED_EDGE ( 'NONE', *, *, #146, .F. ) ;
#262 = AXIS2_PLACEMENT_3D ( 'NONE', #137, #294, #3 ) ;
#263 = DIRECTION ( 'NONE',  ( 0.000000000000000000, 0.000000000000000000, 1.000000000000000000 ) ) ;
#264 = VERTEX_POINT ( 'NONE', #78 ) ;
#265 = DIRECTION ( 'NONE',  ( 0.000000000000000000, 0.000000000000000000, 1.000000000000000000 ) ) ;
#266 = ORIENTED_EDGE ( 'NONE', *, *, #7, .F. ) ;
#267 = EDGE_CURVE ( 'NONE', #299, #87, #48, .T. ) ;
#268 = EDGE_CURVE ( 'NONE', #87, #142, #27, .T. ) ;
#269 = PERSON_AND_ORGANIZATION ( #210, #295 ) ;
#270 = DIRECTION ( 'NONE',  ( 0.000000000000000000, 0.000000000000000000, 1.000000000000000000 ) ) ;
#271 = AXIS2_PLACEMENT_3D ( 'NONE', #86, #58, #177 ) ;
#272 = FACE_OUTER_BOUND ( 'NONE', #139, .T. ) ;
#273 = PLANE ( 'NONE',  #125 ) ;
#274 = DIRECTION ( 'NONE',  ( -0.000000000000000000, -0.000000000000000000, -1.000000000000000000 ) ) ;
#275 = AXIS2_PLACEMENT_3D ( 'NONE', #176, #200, #39 ) ;
#276 = CC_DESIGN_PERSON_AND_ORGANIZATION_ASSIGNMENT ( #55, #307, ( #106 ) ) ;
#277 = APPROVAL_DATE_TIME ( #120, #85 ) ;
#278 = ORIENTED_EDGE ( 'NONE', *, *, #14, .T. ) ;
#279 = CYLINDRICAL_SURFACE ( 'NONE', #221, 2.250000000000000000 ) ;
#280 = DIRECTION ( 'NONE',  ( -0.000000000000000000, -0.000000000000000000, -1.000000000000000000 ) ) ;
#281 = CIRCLE ( 'NONE', #104, 2.449999999999999734 ) ;
#282 = CALENDAR_DATE ( 2022, 7, 7 ) ;
#283 = ORIENTED_EDGE ( 'NONE', *, *, #209, .F. ) ;
#284 = APPROVAL_DATE_TIME ( #154, #231 ) ;
#285 = EDGE_CURVE ( 'NONE', #299, #234, #201, .T. ) ;
#286 = CARTESIAN_POINT ( 'NONE',  ( -4.000000000000000000, 0.000000000000000000, 3.000000000000000000 ) ) ;
#287 = APPROVAL_ROLE ( '' ) ;
#288 = DIRECTION ( 'NONE',  ( 0.000000000000000000, 0.000000000000000000, -1.000000000000000000 ) ) ;
#289 = CIRCLE ( 'NONE', #219, 2.250000000000000000 ) ;
#290 = AXIS2_PLACEMENT_3D ( 'NONE', #155, #63, #5 ) ;
#291 = DIRECTION ( 'NONE',  ( 0.000000000000000000, 0.000000000000000000, 1.000000000000000000 ) ) ;
#292 = FACE_OUTER_BOUND ( 'NONE', #37, .T. ) ;
#293 = ORIENTED_EDGE ( 'NONE', *, *, #152, .T. ) ;
#294 = DIRECTION ( 'NONE',  ( 0.000000000000000000, 0.000000000000000000, 1.000000000000000000 ) ) ;
#295 = ORGANIZATION ( 'NEURÈENÝ', 'NEURÈENÝ', '' ) ;
#296 = VECTOR ( 'NONE', #105, 1000.000000000000000 ) ;
#297 = CIRCLE ( 'NONE', #18, 0.2000000000000000944 ) ;
#298 = EDGE_CURVE ( 'NONE', #234, #299, #32, .T. ) ;
#299 = VERTEX_POINT ( 'NONE', #45 ) ;
#300 = APPROVAL_STATUS ( 'not_yet_approved' ) ;
#301 = ORIENTED_EDGE ( 'NONE', *, *, #268, .F. ) ;
#302 = DATE_AND_TIME ( #282, #128 ) ;
#303 = DIRECTION ( 'NONE',  ( 0.000000000000000000, 0.000000000000000000, 1.000000000000000000 ) ) ;
#304 = DATE_TIME_ROLE ( 'creation_date' ) ;
#305 = DIRECTION ( 'NONE',  ( 1.000000000000000000, 0.000000000000000000, 0.000000000000000000 ) ) ;
#306 = AXIS2_PLACEMENT_3D ( 'NONE', #23, #211, #123 ) ;
#307 = PERSON_AND_ORGANIZATION_ROLE ( 'design_supplier' ) ;
ENDSEC;
END-ISO-10303-21;
