ISO-10303-21;
HEADER;
FILE_DESCRIPTION (( 'STEP AP203' ),
    '1' );
FILE_NAME ('5d6a.STEP',
    '2022-07-07T10:02:14',
    ( '' ),
    ( '' ),
    'SwSTEP 2.0',
    'SolidWorks 2019',
    '' );
FILE_SCHEMA (( 'CONFIG_CONTROL_DESIGN' ));
ENDSEC;

DATA;
#1 = CIRCLE ( 'NONE', #305, 4.200000000000000178 ) ;
#2 = ADVANCED_FACE ( 'NONE', ( #17 ), #287, .F. ) ;
#3 = CARTESIAN_POINT ( 'NONE',  ( -4.000000000000000000, 0.000000000000000000, 805.0000000000000000 ) ) ;
#4 = AXIS2_PLACEMENT_3D ( 'NONE', #102, #85, #268 ) ;
#5 = DIRECTION ( 'NONE',  ( 0.000000000000000000, 0.000000000000000000, 1.000000000000000000 ) ) ;
#6 = SECURITY_CLASSIFICATION ( '', '', #89 ) ;
#7 = CARTESIAN_POINT ( 'NONE',  ( 0.000000000000000000, 0.000000000000000000, 805.0000000000000000 ) ) ;
#8 = CC_DESIGN_PERSON_AND_ORGANIZATION_ASSIGNMENT ( #204, #277, ( #107 ) ) ;
#9 = DIRECTION ( 'NONE',  ( -1.000000000000000000, 1.224646799147353454E-16, 0.000000000000000000 ) ) ;
#10 = ORIENTED_EDGE ( 'NONE', *, *, #227, .T. ) ;
#11 = PERSON ( 'NEURÈENÝ', 'NEURÈENÝ', 'NEURÈENÝ', ('NEURÈENÝ'), ('NEURÈENÝ'), ('NEURÈENÝ') ) ;
#12 = CYLINDRICAL_SURFACE ( 'NONE', #141, 7.000000000000000000 ) ;
#13 = CLOSED_SHELL ( 'NONE', ( #70, #94, #122, #144, #237, #176, #260, #246, #2 ) ) ;
#14 =( GEOMETRIC_REPRESENTATION_CONTEXT ( 3 ) GLOBAL_UNCERTAINTY_ASSIGNED_CONTEXT ( ( #261 ) ) GLOBAL_UNIT_ASSIGNED_CONTEXT ( ( #21, #92, #202 ) ) REPRESENTATION_CONTEXT ( 'NONE', 'WORKASPACE' ) );
#15 = EDGE_LOOP ( 'NONE', ( #161, #128 ) ) ;
#16 = CC_DESIGN_PERSON_AND_ORGANIZATION_ASSIGNMENT ( #140, #301, ( #79 ) ) ;
#17 = FACE_OUTER_BOUND ( 'NONE', #104, .T. ) ;
#18 = APPROVAL_STATUS ( 'not_yet_approved' ) ;
#19 = FACE_OUTER_BOUND ( 'NONE', #300, .T. ) ;
#20 = CARTESIAN_POINT ( 'NONE',  ( -7.000000000000000000, 0.000000000000000000, 5.000000000000000000 ) ) ;
#21 =( LENGTH_UNIT ( ) NAMED_UNIT ( * ) SI_UNIT ( .MILLI., .METRE. ) );
#22 = DIRECTION ( 'NONE',  ( 0.000000000000000000, 0.000000000000000000, 1.000000000000000000 ) ) ;
#23 = DATE_TIME_ROLE ( 'creation_date' ) ;
#24 = AXIS2_PLACEMENT_3D ( 'NONE', #189, #58, #123 ) ;
#25 = CIRCLE ( 'NONE', #48, 7.000000000000000000 ) ;
#26 = PRODUCT_DEFINITION ( 'NEZNÁMÝ', '', #79, #100 ) ;
#27 = DIRECTION ( 'NONE',  ( 1.000000000000000000, 0.000000000000000000, -0.000000000000000000 ) ) ;
#28 = APPROVAL_ROLE ( '' ) ;
#29 = CIRCLE ( 'NONE', #259, 4.000000000000000000 ) ;
#30 = DIRECTION ( 'NONE',  ( 0.000000000000000000, -1.000000000000000000, 0.000000000000000000 ) ) ;
#31 = AXIS2_PLACEMENT_3D ( 'NONE', #296, #115, #279 ) ;
#32 = FACE_OUTER_BOUND ( 'NONE', #245, .T. ) ;
#33 = EDGE_CURVE ( 'NONE', #276, #267, #223, .T. ) ;
#34 = CARTESIAN_POINT ( 'NONE',  ( 0.000000000000000000, 0.000000000000000000, 805.0000000000000000 ) ) ;
#35 = VERTEX_POINT ( 'NONE', #20 ) ;
#36 = DIRECTION ( 'NONE',  ( 0.000000000000000000, 0.000000000000000000, -1.000000000000000000 ) ) ;
#37 = APPROVAL ( #18, 'NEURÈENÝ' ) ;
#38 = ORIENTED_EDGE ( 'NONE', *, *, #62, .T. ) ;
#39 = DIRECTION ( 'NONE',  ( 1.000000000000000000, 0.000000000000000000, 0.000000000000000000 ) ) ;
#40 = CARTESIAN_POINT ( 'NONE',  ( 0.000000000000000000, 0.000000000000000000, 5.000000000000000000 ) ) ;
#41 = ORIENTED_EDGE ( 'NONE', *, *, #183, .F. ) ;
#42 = DIRECTION ( 'NONE',  ( 1.000000000000000000, 0.000000000000000000, 0.000000000000000000 ) ) ;
#43 = DIRECTION ( 'NONE',  ( 0.000000000000000000, 0.000000000000000000, 1.000000000000000000 ) ) ;
#44 = EDGE_CURVE ( 'NONE', #105, #91, #88, .T. ) ;
#45 = COORDINATED_UNIVERSAL_TIME_OFFSET ( 1, 0, .AHEAD. ) ;
#46 = DIRECTION ( 'NONE',  ( 0.000000000000000000, 0.000000000000000000, 1.000000000000000000 ) ) ;
#47 = PERSON_AND_ORGANIZATION_ROLE ( 'creator' ) ;
#48 = AXIS2_PLACEMENT_3D ( 'NONE', #146, #244, #148 ) ;
#49 = DATE_AND_TIME ( #257, #110 ) ;
#50 = DATE_TIME_ROLE ( 'classification_date' ) ;
#51 = AXIS2_PLACEMENT_3D ( 'NONE', #74, #136, #252 ) ;
#52 = DIRECTION ( 'NONE',  ( 0.000000000000000000, 0.000000000000000000, 1.000000000000000000 ) ) ;
#53 = APPLICATION_CONTEXT ( 'configuration controlled 3d designs of mechanical parts and assemblies' ) ;
#54 = CARTESIAN_POINT ( 'NONE',  ( 4.000000000000000000, 4.898587196589412829E-16, 805.0000000000000000 ) ) ;
#55 = CC_DESIGN_PERSON_AND_ORGANIZATION_ASSIGNMENT ( #180, #275, ( #6 ) ) ;
#56 = ORIENTED_EDGE ( 'NONE', *, *, #241, .F. ) ;
#57 = AXIS2_PLACEMENT_3D ( 'NONE', #262, #52, #145 ) ;
#58 = DIRECTION ( 'NONE',  ( 0.000000000000000000, 0.000000000000000000, 1.000000000000000000 ) ) ;
#59 = VERTEX_POINT ( 'NONE', #66 ) ;
#60 = CARTESIAN_POINT ( 'NONE',  ( 0.000000000000000000, 0.000000000000000000, 5.000000000000000000 ) ) ;
#61 = ORIENTED_EDGE ( 'NONE', *, *, #150, .F. ) ;
#62 = EDGE_CURVE ( 'NONE', #91, #84, #125, .T. ) ;
#63 = EDGE_LOOP ( 'NONE', ( #56, #147 ) ) ;
#64 = CIRCLE ( 'NONE', #233, 4.000000000000000000 ) ;
#65 = AXIS2_PLACEMENT_3D ( 'NONE', #294, #30, #36 ) ;
#66 = CARTESIAN_POINT ( 'NONE',  ( -4.200000000000000178, 5.143516556418882928E-16, 4.999999999999991118 ) ) ;
#67 = PERSON_AND_ORGANIZATION ( #11, #174 ) ;
#68 = DIRECTION ( 'NONE',  ( -1.000000000000000000, 0.000000000000000000, 0.000000000000000000 ) ) ;
#69 = COORDINATED_UNIVERSAL_TIME_OFFSET ( 1, 0, .AHEAD. ) ;
#70 = ADVANCED_FACE ( 'NONE', ( #157 ), #168, .F. ) ;
#71 = ORIENTED_EDGE ( 'NONE', *, *, #285, .F. ) ;
#72 = COORDINATED_UNIVERSAL_TIME_OFFSET ( 1, 0, .AHEAD. ) ;
#73 = APPROVAL_PERSON_ORGANIZATION ( #236, #213, #28 ) ;
#74 = CARTESIAN_POINT ( 'NONE',  ( 0.000000000000000000, 0.000000000000000000, 5.199999999999982414 ) ) ;
#75 = CARTESIAN_POINT ( 'NONE',  ( -7.000000000000000000, 0.000000000000000000, 5.000000000000000000 ) ) ;
#76 = MECHANICAL_CONTEXT ( 'NONE', #53, 'mechanical' ) ;
#77 = EDGE_CURVE ( 'NONE', #177, #149, #64, .T. ) ;
#78 = DATE_AND_TIME ( #239, #280 ) ;
#79 = PRODUCT_DEFINITION_FORMATION_WITH_SPECIFIED_SOURCE ( 'LIBOVOLNÝ', '', #107, .NOT_KNOWN. ) ;
#80 = PLANE ( 'NONE',  #4 ) ;
#81 = DIRECTION ( 'NONE',  ( -0.000000000000000000, -0.000000000000000000, -1.000000000000000000 ) ) ;
#82 = ORIENTED_EDGE ( 'NONE', *, *, #150, .T. ) ;
#83 = LINE ( 'NONE', #290, #178 ) ;
#84 = VERTEX_POINT ( 'NONE', #109 ) ;
#85 = DIRECTION ( 'NONE',  ( 0.000000000000000000, 0.000000000000000000, 1.000000000000000000 ) ) ;
#86 = ORIENTED_EDGE ( 'NONE', *, *, #77, .F. ) ;
#87 = VECTOR ( 'NONE', #288, 1000.000000000000000 ) ;
#88 = LINE ( 'NONE', #302, #200 ) ;
#89 = SECURITY_CLASSIFICATION_LEVEL ( 'unclassified' ) ;
#90 = CARTESIAN_POINT ( 'NONE',  ( 0.000000000000000000, 0.000000000000000000, 5.199999999999982414 ) ) ;
#91 = VERTEX_POINT ( 'NONE', #230 ) ;
#92 =( NAMED_UNIT ( * ) PLANE_ANGLE_UNIT ( ) SI_UNIT ( $, .RADIAN. ) );
#93 = AXIS2_PLACEMENT_3D ( 'NONE', #206, #118, #112 ) ;
#94 = ADVANCED_FACE ( 'NONE', ( #207 ), #205, .T. ) ;
#95 = CARTESIAN_POINT ( 'NONE',  ( 0.000000000000000000, 0.000000000000000000, 805.0000000000000000 ) ) ;
#96 = APPROVAL_ROLE ( '' ) ;
#97 = APPROVAL_DATE_TIME ( #255, #37 ) ;
#98 = CARTESIAN_POINT ( 'NONE',  ( -4.200000000000000178, 5.143516556418882928E-16, 5.199999999999982414 ) ) ;
#99 = AXIS2_PLACEMENT_3D ( 'NONE', #98, #170, #9 ) ;
#100 = DESIGN_CONTEXT ( 'detailed design', #214, 'design' ) ;
#101 = FACE_OUTER_BOUND ( 'NONE', #131, .T. ) ;
#102 = CARTESIAN_POINT ( 'NONE',  ( 0.000000000000000000, 0.000000000000000000, 5.000000000000000000 ) ) ;
#103 = FACE_OUTER_BOUND ( 'NONE', #63, .T. ) ;
#104 = EDGE_LOOP ( 'NONE', ( #153, #164, #82, #179 ) ) ;
#105 = VERTEX_POINT ( 'NONE', #251 ) ;
#106 = ORIENTED_EDGE ( 'NONE', *, *, #217, .F. ) ;
#107 = PRODUCT ( '5d6a', '5d6a', '', ( #76 ) ) ;
#108 = CYLINDRICAL_SURFACE ( 'NONE', #190, 7.000000000000000000 ) ;
#109 = CARTESIAN_POINT ( 'NONE',  ( -7.000000000000000000, 0.000000000000000000, 0.000000000000000000 ) ) ;
#110 = LOCAL_TIME ( 12, 2, 14.00000000000000000, #69 ) ;
#111 = CARTESIAN_POINT ( 'NONE',  ( 0.000000000000000000, 0.000000000000000000, 5.000000000000000000 ) ) ;
#112 = DIRECTION ( 'NONE',  ( 1.000000000000000000, 0.000000000000000000, 0.000000000000000000 ) ) ;
#113 = CARTESIAN_POINT ( 'NONE',  ( 0.000000000000000000, 0.000000000000000000, 805.0000000000000000 ) ) ;
#114 = DIRECTION ( 'NONE',  ( -0.000000000000000000, -0.000000000000000000, -1.000000000000000000 ) ) ;
#115 = DIRECTION ( 'NONE',  ( 0.000000000000000000, 0.000000000000000000, 1.000000000000000000 ) ) ;
#116 = PERSON_AND_ORGANIZATION ( #11, #174 ) ;
#117 = VECTOR ( 'NONE', #114, 1000.000000000000000 ) ;
#118 = DIRECTION ( 'NONE',  ( 0.000000000000000000, 0.000000000000000000, 1.000000000000000000 ) ) ;
#119 = CARTESIAN_POINT ( 'NONE',  ( -4.000000000000000000, 0.000000000000000000, 5.199999999999982414 ) ) ;
#120 = EDGE_CURVE ( 'NONE', #59, #229, #1, .T. ) ;
#121 = CC_DESIGN_APPROVAL ( #258, ( #79 ) ) ;
#122 = ADVANCED_FACE ( 'NONE', ( #19 ), #108, .T. ) ;
#123 = DIRECTION ( 'NONE',  ( 1.000000000000000000, 0.000000000000000000, 0.000000000000000000 ) ) ;
#124 = ORIENTED_EDGE ( 'NONE', *, *, #77, .T. ) ;
#125 = CIRCLE ( 'NONE', #266, 7.000000000000000000 ) ;
#126 = DIRECTION ( 'NONE',  ( -0.000000000000000000, -0.000000000000000000, -1.000000000000000000 ) ) ;
#127 = DIRECTION ( 'NONE',  ( -1.000000000000000000, 0.000000000000000000, 0.000000000000000000 ) ) ;
#128 = ORIENTED_EDGE ( 'NONE', *, *, #120, .T. ) ;
#129 = EDGE_CURVE ( 'NONE', #35, #105, #155, .T. ) ;
#130 = PLANE ( 'NONE',  #216 ) ;
#131 = EDGE_LOOP ( 'NONE', ( #195, #197, #306, #273 ) ) ;
#132 = ORIENTED_EDGE ( 'NONE', *, *, #297, .T. ) ;
#133 = CARTESIAN_POINT ( 'NONE',  ( 0.000000000000000000, 0.000000000000000000, 0.000000000000000000 ) ) ;
#134 = DATE_AND_TIME ( #165, #198 ) ;
#135 = ORIENTED_EDGE ( 'NONE', *, *, #285, .T. ) ;
#136 = DIRECTION ( 'NONE',  ( 0.000000000000000000, 0.000000000000000000, 1.000000000000000000 ) ) ;
#137 = DATE_AND_TIME ( #187, #188 ) ;
#138 = EDGE_LOOP ( 'NONE', ( #124, #132 ) ) ;
#139 = PERSON_AND_ORGANIZATION ( #11, #174 ) ;
#140 = PERSON_AND_ORGANIZATION ( #11, #174 ) ;
#141 = AXIS2_PLACEMENT_3D ( 'NONE', #60, #265, #196 ) ;
#142 = AXIS2_PLACEMENT_3D ( 'NONE', #215, #5, #192 ) ;
#143 = CC_DESIGN_PERSON_AND_ORGANIZATION_ASSIGNMENT ( #67, #47, ( #79 ) ) ;
#144 = ADVANCED_FACE ( 'NONE', ( #101 ), #12, .T. ) ;
#145 = DIRECTION ( 'NONE',  ( 1.000000000000000000, 0.000000000000000000, 0.000000000000000000 ) ) ;
#146 = CARTESIAN_POINT ( 'NONE',  ( 0.000000000000000000, 0.000000000000000000, 0.000000000000000000 ) ) ;
#147 = ORIENTED_EDGE ( 'NONE', *, *, #62, .F. ) ;
#148 = DIRECTION ( 'NONE',  ( 1.000000000000000000, 0.000000000000000000, 0.000000000000000000 ) ) ;
#149 = VERTEX_POINT ( 'NONE', #54 ) ;
#150 = EDGE_CURVE ( 'NONE', #276, #229, #270, .T. ) ;
#151 = DIRECTION ( 'NONE',  ( 1.000000000000000000, 0.000000000000000000, 0.000000000000000000 ) ) ;
#152 = ORIENTED_EDGE ( 'NONE', *, *, #295, .F. ) ;
#153 = ORIENTED_EDGE ( 'NONE', *, *, #227, .F. ) ;
#154 = PRODUCT_DEFINITION_SHAPE ( 'NONE', 'NONE',  #26 ) ;
#155 = CIRCLE ( 'NONE', #24, 7.000000000000000000 ) ;
#156 = LOCAL_TIME ( 12, 2, 14.00000000000000000, #45 ) ;
#157 = FACE_OUTER_BOUND ( 'NONE', #269, .T. ) ;
#158 = CARTESIAN_POINT ( 'NONE',  ( 0.000000000000000000, 0.000000000000000000, 805.0000000000000000 ) ) ;
#159 = DIRECTION ( 'NONE',  ( 1.000000000000000000, 0.000000000000000000, 0.000000000000000000 ) ) ;
#160 = PRODUCT_RELATED_PRODUCT_CATEGORY ( 'detail', '', ( #107 ) ) ;
#161 = ORIENTED_EDGE ( 'NONE', *, *, #232, .T. ) ;
#162 = LINE ( 'NONE', #75, #117 ) ;
#163 = APPROVAL_PERSON_ORGANIZATION ( #116, #258, #96 ) ;
#164 = ORIENTED_EDGE ( 'NONE', *, *, #33, .F. ) ;
#165 = CALENDAR_DATE ( 2022, 7, 7 ) ;
#166 = COORDINATED_UNIVERSAL_TIME_OFFSET ( 1, 0, .AHEAD. ) ;
#167 = CC_DESIGN_SECURITY_CLASSIFICATION ( #6, ( #79 ) ) ;
#168 = TOROIDAL_SURFACE ( 'NONE', #286, 4.200000000000000178, 0.2000000000000000111 ) ;
#169 = CARTESIAN_POINT ( 'NONE',  ( 4.000000000000000000, 4.898587196589412829E-16, 5.199999999999982414 ) ) ;
#170 = DIRECTION ( 'NONE',  ( 1.224646799147353207E-16, 1.000000000000000000, -0.000000000000000000 ) ) ;
#171 = ORIENTED_EDGE ( 'NONE', *, *, #303, .F. ) ;
#172 = CARTESIAN_POINT ( 'NONE',  ( 4.200000000000000178, 0.000000000000000000, 4.999999999999991118 ) ) ;
#173 = CC_DESIGN_PERSON_AND_ORGANIZATION_ASSIGNMENT ( #139, #231, ( #26 ) ) ;
#174 = ORGANIZATION ( 'NEURÈENÝ', 'NEURÈENÝ', '' ) ;
#175 = LINE ( 'NONE', #218, #87 ) ;
#176 = ADVANCED_FACE ( 'NONE', ( #103 ), #212, .F. ) ;
#177 = VERTEX_POINT ( 'NONE', #3 ) ;
#178 = VECTOR ( 'NONE', #81, 1000.000000000000000 ) ;
#179 = ORIENTED_EDGE ( 'NONE', *, *, #120, .F. ) ;
#180 = PERSON_AND_ORGANIZATION ( #11, #174 ) ;
#181 = ORIENTED_EDGE ( 'NONE', *, *, #232, .F. ) ;
#182 = PERSON_AND_ORGANIZATION ( #11, #174 ) ;
#183 = EDGE_CURVE ( 'NONE', #177, #267, #83, .T. ) ;
#184 = DIRECTION ( 'NONE',  ( -0.000000000000000000, -0.000000000000000000, -1.000000000000000000 ) ) ;
#185 = APPLICATION_PROTOCOL_DEFINITION ( 'international standard', 'config_control_design', 1994, #214 ) ;
#186 = COORDINATED_UNIVERSAL_TIME_OFFSET ( 1, 0, .AHEAD. ) ;
#187 = CALENDAR_DATE ( 2022, 7, 7 ) ;
#188 = LOCAL_TIME ( 12, 2, 14.00000000000000000, #72 ) ;
#189 = CARTESIAN_POINT ( 'NONE',  ( 0.000000000000000000, 0.000000000000000000, 5.000000000000000000 ) ) ;
#190 = AXIS2_PLACEMENT_3D ( 'NONE', #111, #225, #240 ) ;
#191 = CIRCLE ( 'NONE', #271, 4.200000000000000178 ) ;
#192 = DIRECTION ( 'NONE',  ( 1.000000000000000000, 0.000000000000000000, -0.000000000000000000 ) ) ;
#193 = EDGE_LOOP ( 'NONE', ( #293, #220 ) ) ;
#194 = CYLINDRICAL_SURFACE ( 'NONE', #235, 4.000000000000000000 ) ;
#195 = ORIENTED_EDGE ( 'NONE', *, *, #44, .F. ) ;
#196 = DIRECTION ( 'NONE',  ( -1.000000000000000000, 0.000000000000000000, 0.000000000000000000 ) ) ;
#197 = ORIENTED_EDGE ( 'NONE', *, *, #129, .F. ) ;
#198 = LOCAL_TIME ( 12, 2, 14.00000000000000000, #186 ) ;
#199 = MANIFOLD_SOLID_BREP ( 'Zaoblit1', #13 ) ;
#200 = VECTOR ( 'NONE', #184, 1000.000000000000000 ) ;
#201 = ORIENTED_EDGE ( 'NONE', *, *, #217, .T. ) ;
#202 =( NAMED_UNIT ( * ) SI_UNIT ( $, .STERADIAN. ) SOLID_ANGLE_UNIT ( ) );
#203 = DIRECTION ( 'NONE',  ( 1.000000000000000000, 0.000000000000000000, 0.000000000000000000 ) ) ;
#204 = PERSON_AND_ORGANIZATION ( #11, #174 ) ;
#205 = CYLINDRICAL_SURFACE ( 'NONE', #298, 4.000000000000000000 ) ;
#206 = CARTESIAN_POINT ( 'NONE',  ( 0.000000000000000000, 0.000000000000000000, 0.000000000000000000 ) ) ;
#207 = FACE_OUTER_BOUND ( 'NONE', #224, .T. ) ;
#208 = APPROVAL_STATUS ( 'not_yet_approved' ) ;
#209 = APPROVAL_PERSON_ORGANIZATION ( #182, #37, #254 ) ;
#210 = DIRECTION ( 'NONE',  ( 0.000000000000000000, 0.000000000000000000, 1.000000000000000000 ) ) ;
#211 = SHAPE_DEFINITION_REPRESENTATION ( #154, #248 ) ;
#212 = PLANE ( 'NONE',  #142 ) ;
#213 = APPROVAL ( #283, 'NEURÈENÝ' ) ;
#214 = APPLICATION_CONTEXT ( 'configuration controlled 3d designs of mechanical parts and assemblies' ) ;
#215 = CARTESIAN_POINT ( 'NONE',  ( 0.000000000000000000, 0.000000000000000000, 0.000000000000000000 ) ) ;
#216 = AXIS2_PLACEMENT_3D ( 'NONE', #7, #222, #27 ) ;
#217 = EDGE_CURVE ( 'NONE', #149, #276, #175, .T. ) ;
#218 = CARTESIAN_POINT ( 'NONE',  ( 4.000000000000000000, 4.898587196589412829E-16, 805.0000000000000000 ) ) ;
#219 = FACE_OUTER_BOUND ( 'NONE', #193, .T. ) ;
#220 = ORIENTED_EDGE ( 'NONE', *, *, #303, .T. ) ;
#221 = CC_DESIGN_DATE_AND_TIME_ASSIGNMENT ( #137, #23, ( #26 ) ) ;
#222 = DIRECTION ( 'NONE',  ( 0.000000000000000000, 0.000000000000000000, 1.000000000000000000 ) ) ;
#223 = CIRCLE ( 'NONE', #31, 4.000000000000000000 ) ;
#224 = EDGE_LOOP ( 'NONE', ( #249, #201, #291, #41 ) ) ;
#225 = DIRECTION ( 'NONE',  ( -0.000000000000000000, -0.000000000000000000, -1.000000000000000000 ) ) ;
#226 = CARTESIAN_POINT ( 'NONE',  ( 0.000000000000000000, 0.000000000000000000, 5.000000000000000000 ) ) ;
#227 = EDGE_CURVE ( 'NONE', #267, #59, #234, .T. ) ;
#228 = DIRECTION ( 'NONE',  ( 0.000000000000000000, 0.000000000000000000, 1.000000000000000000 ) ) ;
#229 = VERTEX_POINT ( 'NONE', #172 ) ;
#230 = CARTESIAN_POINT ( 'NONE',  ( 7.000000000000000000, 8.572527594031473190E-16, 0.000000000000000000 ) ) ;
#231 = PERSON_AND_ORGANIZATION_ROLE ( 'creator' ) ;
#232 = EDGE_CURVE ( 'NONE', #229, #59, #191, .T. ) ;
#233 = AXIS2_PLACEMENT_3D ( 'NONE', #113, #46, #203 ) ;
#234 = CIRCLE ( 'NONE', #99, 0.1999999999999996503 ) ;
#235 = AXIS2_PLACEMENT_3D ( 'NONE', #34, #292, #127 ) ;
#236 = PERSON_AND_ORGANIZATION ( #11, #174 ) ;
#237 = ADVANCED_FACE ( 'NONE', ( #247, #219 ), #80, .T. ) ;
#238 = CIRCLE ( 'NONE', #57, 4.000000000000000000 ) ;
#239 = CALENDAR_DATE ( 2022, 7, 7 ) ;
#240 = DIRECTION ( 'NONE',  ( -1.000000000000000000, 0.000000000000000000, 0.000000000000000000 ) ) ;
#241 = EDGE_CURVE ( 'NONE', #84, #91, #25, .T. ) ;
#242 = FACE_OUTER_BOUND ( 'NONE', #138, .T. ) ;
#243 = ORIENTED_EDGE ( 'NONE', *, *, #44, .T. ) ;
#244 = DIRECTION ( 'NONE',  ( 0.000000000000000000, 0.000000000000000000, 1.000000000000000000 ) ) ;
#245 = EDGE_LOOP ( 'NONE', ( #106, #86, #264, #135 ) ) ;
#246 = ADVANCED_FACE ( 'NONE', ( #242 ), #130, .T. ) ;
#247 = FACE_BOUND ( 'NONE', #15, .T. ) ;
#248 = ADVANCED_BREP_SHAPE_REPRESENTATION ( '5d6a', ( #199, #93 ), #14 ) ;
#249 = ORIENTED_EDGE ( 'NONE', *, *, #297, .F. ) ;
#250 = DIRECTION ( 'NONE',  ( 1.000000000000000000, 0.000000000000000000, 0.000000000000000000 ) ) ;
#251 = CARTESIAN_POINT ( 'NONE',  ( 7.000000000000000000, 8.572527594031473190E-16, 5.000000000000000000 ) ) ;
#252 = DIRECTION ( 'NONE',  ( 1.000000000000000000, 0.000000000000000000, 0.000000000000000000 ) ) ;
#253 = AXIS2_PLACEMENT_3D ( 'NONE', #40, #210, #282 ) ;
#254 = APPROVAL_ROLE ( '' ) ;
#255 = DATE_AND_TIME ( #281, #156 ) ;
#256 = APPROVAL_DATE_TIME ( #134, #258 ) ;
#257 = CALENDAR_DATE ( 2022, 7, 7 ) ;
#258 = APPROVAL ( #208, 'NEURÈENÝ' ) ;
#259 = AXIS2_PLACEMENT_3D ( 'NONE', #158, #228, #42 ) ;
#260 = ADVANCED_FACE ( 'NONE', ( #32 ), #194, .T. ) ;
#261 = UNCERTAINTY_MEASURE_WITH_UNIT (LENGTH_MEASURE( 1.000000000000000082E-05 ), #21, 'distance_accuracy_value', 'NONE');
#262 = CARTESIAN_POINT ( 'NONE',  ( 0.000000000000000000, 0.000000000000000000, 5.199999999999982414 ) ) ;
#263 = CARTESIAN_POINT ( 'NONE',  ( 0.000000000000000000, 0.000000000000000000, 5.000000000000000000 ) ) ;
#264 = ORIENTED_EDGE ( 'NONE', *, *, #183, .T. ) ;
#265 = DIRECTION ( 'NONE',  ( -0.000000000000000000, -0.000000000000000000, -1.000000000000000000 ) ) ;
#266 = AXIS2_PLACEMENT_3D ( 'NONE', #133, #43, #159 ) ;
#267 = VERTEX_POINT ( 'NONE', #119 ) ;
#268 = DIRECTION ( 'NONE',  ( 1.000000000000000000, 0.000000000000000000, -0.000000000000000000 ) ) ;
#269 = EDGE_LOOP ( 'NONE', ( #71, #10, #181, #61 ) ) ;
#270 = CIRCLE ( 'NONE', #65, 0.1999999999999996503 ) ;
#271 = AXIS2_PLACEMENT_3D ( 'NONE', #263, #126, #151 ) ;
#272 = CC_DESIGN_APPROVAL ( #213, ( #6 ) ) ;
#273 = ORIENTED_EDGE ( 'NONE', *, *, #241, .T. ) ;
#274 = DIRECTION ( 'NONE',  ( -0.000000000000000000, -0.000000000000000000, -1.000000000000000000 ) ) ;
#275 = PERSON_AND_ORGANIZATION_ROLE ( 'classification_officer' ) ;
#276 = VERTEX_POINT ( 'NONE', #169 ) ;
#277 = PERSON_AND_ORGANIZATION_ROLE ( 'design_owner' ) ;
#278 = CC_DESIGN_DATE_AND_TIME_ASSIGNMENT ( #49, #50, ( #6 ) ) ;
#279 = DIRECTION ( 'NONE',  ( 1.000000000000000000, 0.000000000000000000, 0.000000000000000000 ) ) ;
#280 = LOCAL_TIME ( 12, 2, 14.00000000000000000, #166 ) ;
#281 = CALENDAR_DATE ( 2022, 7, 7 ) ;
#282 = DIRECTION ( 'NONE',  ( 1.000000000000000000, 0.000000000000000000, 0.000000000000000000 ) ) ;
#283 = APPROVAL_STATUS ( 'not_yet_approved' ) ;
#284 = APPROVAL_DATE_TIME ( #78, #213 ) ;
#285 = EDGE_CURVE ( 'NONE', #267, #276, #238, .T. ) ;
#286 = AXIS2_PLACEMENT_3D ( 'NONE', #90, #22, #250 ) ;
#287 = TOROIDAL_SURFACE ( 'NONE', #51, 4.200000000000000178, 0.2000000000000000111 ) ;
#288 = DIRECTION ( 'NONE',  ( -0.000000000000000000, -0.000000000000000000, -1.000000000000000000 ) ) ;
#289 = CIRCLE ( 'NONE', #253, 7.000000000000000000 ) ;
#290 = CARTESIAN_POINT ( 'NONE',  ( -4.000000000000000000, 0.000000000000000000, 805.0000000000000000 ) ) ;
#291 = ORIENTED_EDGE ( 'NONE', *, *, #33, .T. ) ;
#292 = DIRECTION ( 'NONE',  ( -0.000000000000000000, -0.000000000000000000, -1.000000000000000000 ) ) ;
#293 = ORIENTED_EDGE ( 'NONE', *, *, #129, .T. ) ;
#294 = CARTESIAN_POINT ( 'NONE',  ( 4.200000000000000178, 0.000000000000000000, 5.199999999999982414 ) ) ;
#295 = EDGE_CURVE ( 'NONE', #35, #84, #162, .T. ) ;
#296 = CARTESIAN_POINT ( 'NONE',  ( 0.000000000000000000, 0.000000000000000000, 5.199999999999982414 ) ) ;
#297 = EDGE_CURVE ( 'NONE', #149, #177, #29, .T. ) ;
#298 = AXIS2_PLACEMENT_3D ( 'NONE', #95, #274, #68 ) ;
#299 = CC_DESIGN_APPROVAL ( #37, ( #26 ) ) ;
#300 = EDGE_LOOP ( 'NONE', ( #171, #243, #38, #152 ) ) ;
#301 = PERSON_AND_ORGANIZATION_ROLE ( 'design_supplier' ) ;
#302 = CARTESIAN_POINT ( 'NONE',  ( 7.000000000000000000, 8.572527594031473190E-16, 5.000000000000000000 ) ) ;
#303 = EDGE_CURVE ( 'NONE', #105, #35, #289, .T. ) ;
#304 = DIRECTION ( 'NONE',  ( -0.000000000000000000, -0.000000000000000000, -1.000000000000000000 ) ) ;
#305 = AXIS2_PLACEMENT_3D ( 'NONE', #226, #304, #39 ) ;
#306 = ORIENTED_EDGE ( 'NONE', *, *, #295, .T. ) ;
#307 = APPLICATION_PROTOCOL_DEFINITION ( 'international standard', 'config_control_design', 1994, #53 ) ;
ENDSEC;
END-ISO-10303-21;
