ISO-10303-21;
HEADER;
FILE_DESCRIPTION (( 'STEP AP203' ),
    '1' );
FILE_NAME ('25be.STEP',
    '2022-07-07T10:05:00',
    ( '' ),
    ( '' ),
    'SwSTEP 2.0',
    'SolidWorks 2019',
    '' );
FILE_SCHEMA (( 'CONFIG_CONTROL_DESIGN' ));
ENDSEC;

DATA;
#1 = ADVANCED_FACE ( 'NONE', ( #268 ), #173, .F. ) ;
#2 = CARTESIAN_POINT ( 'NONE',  ( 0.000000000000000000, 0.000000000000000000, 5.000000000000000000 ) ) ;
#3 = DIRECTION ( 'NONE',  ( 1.000000000000000000, 0.000000000000000000, 0.000000000000000000 ) ) ;
#4 = AXIS2_PLACEMENT_3D ( 'NONE', #167, #31, #288 ) ;
#5 = CIRCLE ( 'NONE', #212, 6.000000000000000888 ) ;
#6 = DIRECTION ( 'NONE',  ( 1.000000000000000000, 0.000000000000000000, 0.000000000000000000 ) ) ;
#7 = CARTESIAN_POINT ( 'NONE',  ( 0.000000000000000000, 0.000000000000000000, 5.000000000000000000 ) ) ;
#8 = PERSON_AND_ORGANIZATION_ROLE ( 'design_owner' ) ;
#9 = VERTEX_POINT ( 'NONE', #100 ) ;
#10 = PERSON_AND_ORGANIZATION ( #256, #164 ) ;
#11 = CARTESIAN_POINT ( 'NONE',  ( -3.750000000000000000, 0.000000000000000000, 320.0000000000000000 ) ) ;
#12 =( LENGTH_UNIT ( ) NAMED_UNIT ( * ) SI_UNIT ( .MILLI., .METRE. ) );
#13 = DIRECTION ( 'NONE',  ( -0.000000000000000000, -0.000000000000000000, -1.000000000000000000 ) ) ;
#14 = COORDINATED_UNIVERSAL_TIME_OFFSET ( 1, 0, .AHEAD. ) ;
#15 = AXIS2_PLACEMENT_3D ( 'NONE', #193, #89, #33 ) ;
#16 = EDGE_LOOP ( 'NONE', ( #48, #43 ) ) ;
#17 = DIRECTION ( 'NONE',  ( 0.000000000000000000, -1.000000000000000000, 0.000000000000000000 ) ) ;
#18 = DIRECTION ( 'NONE',  ( 0.000000000000000000, 0.000000000000000000, 1.000000000000000000 ) ) ;
#19 = CIRCLE ( 'NONE', #251, 3.750000000000000000 ) ;
#20 = APPROVAL_ROLE ( '' ) ;
#21 = ORIENTED_EDGE ( 'NONE', *, *, #74, .T. ) ;
#22 = CC_DESIGN_PERSON_AND_ORGANIZATION_ASSIGNMENT ( #10, #8, ( #213 ) ) ;
#23 = ORIENTED_EDGE ( 'NONE', *, *, #86, .F. ) ;
#24 = CALENDAR_DATE ( 2022, 7, 7 ) ;
#25 = APPROVAL_PERSON_ORGANIZATION ( #65, #207, #60 ) ;
#26 = EDGE_CURVE ( 'NONE', #223, #282, #84, .T. ) ;
#27 = EDGE_CURVE ( 'NONE', #9, #203, #143, .T. ) ;
#28 = CC_DESIGN_APPROVAL ( #254, ( #262 ) ) ;
#29 = DIRECTION ( 'NONE',  ( 0.000000000000000000, 0.000000000000000000, 1.000000000000000000 ) ) ;
#30 = ORIENTED_EDGE ( 'NONE', *, *, #132, .F. ) ;
#31 = DIRECTION ( 'NONE',  ( 0.000000000000000000, 0.000000000000000000, 1.000000000000000000 ) ) ;
#32 = CARTESIAN_POINT ( 'NONE',  ( 0.000000000000000000, 0.000000000000000000, 5.000000000000000000 ) ) ;
#33 = DIRECTION ( 'NONE',  ( 1.000000000000000000, 0.000000000000000000, 0.000000000000000000 ) ) ;
#34 = PRODUCT_RELATED_PRODUCT_CATEGORY ( 'detail', '', ( #213 ) ) ;
#35 =( NAMED_UNIT ( * ) PLANE_ANGLE_UNIT ( ) SI_UNIT ( $, .RADIAN. ) );
#36 = FACE_OUTER_BOUND ( 'NONE', #192, .T. ) ;
#37 = APPROVAL_STATUS ( 'not_yet_approved' ) ;
#38 = DIRECTION ( 'NONE',  ( 0.000000000000000000, 0.000000000000000000, 1.000000000000000000 ) ) ;
#39 = APPROVAL_DATE_TIME ( #249, #207 ) ;
#40 = AXIS2_PLACEMENT_3D ( 'NONE', #218, #17, #198 ) ;
#41 = DIRECTION ( 'NONE',  ( 1.000000000000000000, 0.000000000000000000, -0.000000000000000000 ) ) ;
#42 = ADVANCED_FACE ( 'NONE', ( #59 ), #290, .T. ) ;
#43 = ORIENTED_EDGE ( 'NONE', *, *, #26, .T. ) ;
#44 = DIRECTION ( 'NONE',  ( 0.000000000000000000, 0.000000000000000000, 1.000000000000000000 ) ) ;
#45 = CARTESIAN_POINT ( 'NONE',  ( 3.949999999999999734, 0.000000000000000000, 4.999999999999991118 ) ) ;
#46 = ORIENTED_EDGE ( 'NONE', *, *, #159, .T. ) ;
#47 = AXIS2_PLACEMENT_3D ( 'NONE', #189, #124, #286 ) ;
#48 = ORIENTED_EDGE ( 'NONE', *, *, #63, .T. ) ;
#49 = AXIS2_PLACEMENT_3D ( 'NONE', #248, #224, #176 ) ;
#50 = AXIS2_PLACEMENT_3D ( 'NONE', #136, #18, #199 ) ;
#51 = UNCERTAINTY_MEASURE_WITH_UNIT (LENGTH_MEASURE( 1.000000000000000082E-05 ), #12, 'distance_accuracy_value', 'NONE');
#52 = EDGE_CURVE ( 'NONE', #160, #223, #155, .T. ) ;
#53 = EDGE_CURVE ( 'NONE', #66, #156, #5, .T. ) ;
#54 = FACE_BOUND ( 'NONE', #16, .T. ) ;
#55 = APPROVAL_PERSON_ORGANIZATION ( #222, #108, #217 ) ;
#56 = DIRECTION ( 'NONE',  ( -0.000000000000000000, -0.000000000000000000, -1.000000000000000000 ) ) ;
#57 = DIRECTION ( 'NONE',  ( 1.224646799147353207E-16, 1.000000000000000000, -0.000000000000000000 ) ) ;
#58 = ORIENTED_EDGE ( 'NONE', *, *, #77, .T. ) ;
#59 = FACE_OUTER_BOUND ( 'NONE', #201, .T. ) ;
#60 = APPROVAL_ROLE ( '' ) ;
#61 = LINE ( 'NONE', #158, #234 ) ;
#62 = PERSON_AND_ORGANIZATION ( #256, #164 ) ;
#63 = EDGE_CURVE ( 'NONE', #282, #223, #200, .T. ) ;
#64 = PLANE ( 'NONE',  #72 ) ;
#65 = PERSON_AND_ORGANIZATION ( #256, #164 ) ;
#66 = VERTEX_POINT ( 'NONE', #99 ) ;
#67 = LINE ( 'NONE', #11, #225 ) ;
#68 = MANIFOLD_SOLID_BREP ( 'Zaoblit1', #161 ) ;
#69 = DIRECTION ( 'NONE',  ( 1.000000000000000000, 0.000000000000000000, 0.000000000000000000 ) ) ;
#70 = CC_DESIGN_DATE_AND_TIME_ASSIGNMENT ( #183, #226, ( #262 ) ) ;
#71 = VERTEX_POINT ( 'NONE', #187 ) ;
#72 = AXIS2_PLACEMENT_3D ( 'NONE', #195, #38, #131 ) ;
#73 = ORIENTED_EDGE ( 'NONE', *, *, #83, .F. ) ;
#74 = EDGE_CURVE ( 'NONE', #66, #71, #188, .T. ) ;
#75 = ADVANCED_BREP_SHAPE_REPRESENTATION ( '25be', ( #68, #15 ), #76 ) ;
#76 =( GEOMETRIC_REPRESENTATION_CONTEXT ( 3 ) GLOBAL_UNCERTAINTY_ASSIGNED_CONTEXT ( ( #51 ) ) GLOBAL_UNIT_ASSIGNED_CONTEXT ( ( #12, #35, #104 ) ) REPRESENTATION_CONTEXT ( 'NONE', 'WORKASPACE' ) );
#77 = EDGE_CURVE ( 'NONE', #203, #304, #79, .T. ) ;
#78 = CARTESIAN_POINT ( 'NONE',  ( 6.000000000000000888, 7.347880794884120722E-16, 0.000000000000000000 ) ) ;
#79 = LINE ( 'NONE', #145, #180 ) ;
#80 = DIRECTION ( 'NONE',  ( -1.000000000000000000, 0.000000000000000000, 0.000000000000000000 ) ) ;
#81 = ORIENTED_EDGE ( 'NONE', *, *, #115, .F. ) ;
#82 = PERSON_AND_ORGANIZATION ( #256, #164 ) ;
#83 = EDGE_CURVE ( 'NONE', #203, #9, #202, .T. ) ;
#84 = CIRCLE ( 'NONE', #118, 3.949999999999999734 ) ;
#85 = CYLINDRICAL_SURFACE ( 'NONE', #165, 3.750000000000000000 ) ;
#86 = EDGE_CURVE ( 'NONE', #96, #71, #117, .T. ) ;
#87 = LOCAL_TIME ( 12, 5, 0.000000000000000000, #247 ) ;
#88 = CARTESIAN_POINT ( 'NONE',  ( 3.750000000000000000, 4.592425496802573972E-16, 5.199999999999982414 ) ) ;
#89 = DIRECTION ( 'NONE',  ( 0.000000000000000000, 0.000000000000000000, 1.000000000000000000 ) ) ;
#90 = EDGE_LOOP ( 'NONE', ( #275, #30, #114, #215 ) ) ;
#91 = CARTESIAN_POINT ( 'NONE',  ( -3.949999999999999734, 4.837354856632044071E-16, 4.999999999999991118 ) ) ;
#92 = DIRECTION ( 'NONE',  ( 1.000000000000000000, 0.000000000000000000, 0.000000000000000000 ) ) ;
#93 = ORIENTED_EDGE ( 'NONE', *, *, #27, .T. ) ;
#94 = DATE_AND_TIME ( #24, #307 ) ;
#95 = APPLICATION_CONTEXT ( 'configuration controlled 3d designs of mechanical parts and assemblies' ) ;
#96 = VERTEX_POINT ( 'NONE', #78 ) ;
#97 = DESIGN_CONTEXT ( 'detailed design', #279, 'design' ) ;
#98 = AXIS2_PLACEMENT_3D ( 'NONE', #157, #253, #296 ) ;
#99 = CARTESIAN_POINT ( 'NONE',  ( -6.000000000000000888, 0.000000000000000000, 5.000000000000000000 ) ) ;
#100 = CARTESIAN_POINT ( 'NONE',  ( -3.750000000000000000, 0.000000000000000000, 320.0000000000000000 ) ) ;
#101 = DIRECTION ( 'NONE',  ( -0.000000000000000000, -0.000000000000000000, -1.000000000000000000 ) ) ;
#102 = DIRECTION ( 'NONE',  ( -0.000000000000000000, -0.000000000000000000, -1.000000000000000000 ) ) ;
#103 = CALENDAR_DATE ( 2022, 7, 7 ) ;
#104 =( NAMED_UNIT ( * ) SI_UNIT ( $, .STERADIAN. ) SOLID_ANGLE_UNIT ( ) );
#105 = FACE_OUTER_BOUND ( 'NONE', #123, .T. ) ;
#106 = CYLINDRICAL_SURFACE ( 'NONE', #98, 6.000000000000000888 ) ;
#107 = LOCAL_TIME ( 12, 5, 0.000000000000000000, #14 ) ;
#108 = APPROVAL ( #269, 'NEURÈENÝ' ) ;
#109 = CALENDAR_DATE ( 2022, 7, 7 ) ;
#110 = ORIENTED_EDGE ( 'NONE', *, *, #86, .T. ) ;
#111 = DIRECTION ( 'NONE',  ( -0.000000000000000000, -0.000000000000000000, -1.000000000000000000 ) ) ;
#112 = CARTESIAN_POINT ( 'NONE',  ( 3.750000000000000000, 4.592425496802573972E-16, 320.0000000000000000 ) ) ;
#113 = LOCAL_TIME ( 12, 5, 0.000000000000000000, #149 ) ;
#114 = ORIENTED_EDGE ( 'NONE', *, *, #184, .T. ) ;
#115 = EDGE_CURVE ( 'NONE', #156, #66, #284, .T. ) ;
#116 = EDGE_LOOP ( 'NONE', ( #190, #23 ) ) ;
#117 = CIRCLE ( 'NONE', #47, 6.000000000000000888 ) ;
#118 = AXIS2_PLACEMENT_3D ( 'NONE', #7, #209, #3 ) ;
#119 = AXIS2_PLACEMENT_3D ( 'NONE', #216, #179, #137 ) ;
#120 = ADVANCED_FACE ( 'NONE', ( #54, #122 ), #266, .T. ) ;
#121 = PRODUCT_DEFINITION_SHAPE ( 'NONE', 'NONE',  #162 ) ;
#122 = FACE_OUTER_BOUND ( 'NONE', #163, .T. ) ;
#123 = EDGE_LOOP ( 'NONE', ( #257, #126, #21, #142 ) ) ;
#124 = DIRECTION ( 'NONE',  ( 0.000000000000000000, 0.000000000000000000, 1.000000000000000000 ) ) ;
#125 = ORIENTED_EDGE ( 'NONE', *, *, #74, .F. ) ;
#126 = ORIENTED_EDGE ( 'NONE', *, *, #53, .F. ) ;
#127 = PERSON_AND_ORGANIZATION_ROLE ( 'classification_officer' ) ;
#128 = FACE_OUTER_BOUND ( 'NONE', #90, .T. ) ;
#129 = CC_DESIGN_PERSON_AND_ORGANIZATION_ASSIGNMENT ( #82, #133, ( #285 ) ) ;
#130 = PERSON_AND_ORGANIZATION_ROLE ( 'creator' ) ;
#131 = DIRECTION ( 'NONE',  ( 1.000000000000000000, 0.000000000000000000, -0.000000000000000000 ) ) ;
#132 = EDGE_CURVE ( 'NONE', #304, #160, #283, .T. ) ;
#133 = PERSON_AND_ORGANIZATION_ROLE ( 'design_supplier' ) ;
#134 = DIRECTION ( 'NONE',  ( 1.000000000000000000, 0.000000000000000000, 0.000000000000000000 ) ) ;
#135 = ORIENTED_EDGE ( 'NONE', *, *, #132, .T. ) ;
#136 = CARTESIAN_POINT ( 'NONE',  ( 0.000000000000000000, 0.000000000000000000, 0.000000000000000000 ) ) ;
#137 = DIRECTION ( 'NONE',  ( -1.000000000000000000, 0.000000000000000000, 0.000000000000000000 ) ) ;
#138 = APPROVAL_STATUS ( 'not_yet_approved' ) ;
#139 = ORIENTED_EDGE ( 'NONE', *, *, #186, .T. ) ;
#140 = AXIS2_PLACEMENT_3D ( 'NONE', #299, #271, #92 ) ;
#141 = ADVANCED_FACE ( 'NONE', ( #36 ), #85, .T. ) ;
#142 = ORIENTED_EDGE ( 'NONE', *, *, #278, .T. ) ;
#143 = CIRCLE ( 'NONE', #264, 3.750000000000000000 ) ;
#144 = DIRECTION ( 'NONE',  ( -0.000000000000000000, -0.000000000000000000, -1.000000000000000000 ) ) ;
#145 = CARTESIAN_POINT ( 'NONE',  ( 3.750000000000000000, 4.592425496802573972E-16, 320.0000000000000000 ) ) ;
#146 = DIRECTION ( 'NONE',  ( 1.000000000000000000, 0.000000000000000000, 0.000000000000000000 ) ) ;
#147 = ORIENTED_EDGE ( 'NONE', *, *, #159, .F. ) ;
#148 = DIRECTION ( 'NONE',  ( 0.000000000000000000, 0.000000000000000000, 1.000000000000000000 ) ) ;
#149 = COORDINATED_UNIVERSAL_TIME_OFFSET ( 1, 0, .AHEAD. ) ;
#150 = CARTESIAN_POINT ( 'NONE',  ( 6.000000000000000888, 7.347880794884120722E-16, 5.000000000000000000 ) ) ;
#151 = PERSON_AND_ORGANIZATION ( #256, #164 ) ;
#152 = FACE_OUTER_BOUND ( 'NONE', #178, .T. ) ;
#153 = PERSON_AND_ORGANIZATION_ROLE ( 'creator' ) ;
#154 = DIRECTION ( 'NONE',  ( -1.000000000000000000, 0.000000000000000000, 0.000000000000000000 ) ) ;
#155 = CIRCLE ( 'NONE', #232, 0.1999999999999996503 ) ;
#156 = VERTEX_POINT ( 'NONE', #150 ) ;
#157 = CARTESIAN_POINT ( 'NONE',  ( 0.000000000000000000, 0.000000000000000000, 5.000000000000000000 ) ) ;
#158 = CARTESIAN_POINT ( 'NONE',  ( 6.000000000000000888, 7.347880794884120722E-16, 5.000000000000000000 ) ) ;
#159 = EDGE_CURVE ( 'NONE', #160, #304, #19, .T. ) ;
#160 = VERTEX_POINT ( 'NONE', #221 ) ;
#161 = CLOSED_SHELL ( 'NONE', ( #1, #141, #204, #244, #120, #260, #42, #302, #231 ) ) ;
#162 = PRODUCT_DEFINITION ( 'NEZNÁMÝ', '', #285, #97 ) ;
#163 = EDGE_LOOP ( 'NONE', ( #185, #182 ) ) ;
#164 = ORGANIZATION ( 'NEURÈENÝ', 'NEURÈENÝ', '' ) ;
#165 = AXIS2_PLACEMENT_3D ( 'NONE', #276, #111, #154 ) ;
#166 = DIRECTION ( 'NONE',  ( 1.000000000000000000, 0.000000000000000000, 0.000000000000000000 ) ) ;
#167 = CARTESIAN_POINT ( 'NONE',  ( 0.000000000000000000, 0.000000000000000000, 320.0000000000000000 ) ) ;
#168 = CARTESIAN_POINT ( 'NONE',  ( -3.949999999999999734, 4.837354856632044071E-16, 5.199999999999982414 ) ) ;
#169 = EDGE_LOOP ( 'NONE', ( #147, #261, #252, #197 ) ) ;
#170 = CARTESIAN_POINT ( 'NONE',  ( 0.000000000000000000, 0.000000000000000000, 320.0000000000000000 ) ) ;
#171 = SECURITY_CLASSIFICATION_LEVEL ( 'unclassified' ) ;
#172 = AXIS2_PLACEMENT_3D ( 'NONE', #265, #29, #166 ) ;
#173 = TOROIDAL_SURFACE ( 'NONE', #206, 3.949999999999999734, 0.2000000000000000111 ) ;
#174 = APPROVAL_DATE_TIME ( #274, #108 ) ;
#175 = CARTESIAN_POINT ( 'NONE',  ( 0.000000000000000000, 0.000000000000000000, 5.199999999999982414 ) ) ;
#176 = DIRECTION ( 'NONE',  ( 1.000000000000000000, 0.000000000000000000, 0.000000000000000000 ) ) ;
#177 = APPLICATION_PROTOCOL_DEFINITION ( 'international standard', 'config_control_design', 1994, #279 ) ;
#178 = EDGE_LOOP ( 'NONE', ( #93, #277 ) ) ;
#179 = DIRECTION ( 'NONE',  ( -0.000000000000000000, -0.000000000000000000, -1.000000000000000000 ) ) ;
#180 = VECTOR ( 'NONE', #144, 1000.000000000000000 ) ;
#181 = CYLINDRICAL_SURFACE ( 'NONE', #119, 6.000000000000000888 ) ;
#182 = ORIENTED_EDGE ( 'NONE', *, *, #115, .T. ) ;
#183 = DATE_AND_TIME ( #109, #107 ) ;
#184 = EDGE_CURVE ( 'NONE', #304, #282, #241, .T. ) ;
#185 = ORIENTED_EDGE ( 'NONE', *, *, #53, .T. ) ;
#186 = EDGE_CURVE ( 'NONE', #9, #160, #67, .T. ) ;
#187 = CARTESIAN_POINT ( 'NONE',  ( -6.000000000000000888, 0.000000000000000000, 0.000000000000000000 ) ) ;
#188 = LINE ( 'NONE', #235, #219 ) ;
#189 = CARTESIAN_POINT ( 'NONE',  ( 0.000000000000000000, 0.000000000000000000, 0.000000000000000000 ) ) ;
#190 = ORIENTED_EDGE ( 'NONE', *, *, #278, .F. ) ;
#191 = DATE_AND_TIME ( #293, #113 ) ;
#192 = EDGE_LOOP ( 'NONE', ( #73, #58, #135, #227 ) ) ;
#193 = CARTESIAN_POINT ( 'NONE',  ( 0.000000000000000000, 0.000000000000000000, 0.000000000000000000 ) ) ;
#194 = CARTESIAN_POINT ( 'NONE',  ( 0.000000000000000000, 0.000000000000000000, 5.199999999999982414 ) ) ;
#195 = CARTESIAN_POINT ( 'NONE',  ( 0.000000000000000000, 0.000000000000000000, 320.0000000000000000 ) ) ;
#196 = CIRCLE ( 'NONE', #140, 6.000000000000000888 ) ;
#197 = ORIENTED_EDGE ( 'NONE', *, *, #184, .F. ) ;
#198 = DIRECTION ( 'NONE',  ( 0.000000000000000000, 0.000000000000000000, -1.000000000000000000 ) ) ;
#199 = DIRECTION ( 'NONE',  ( 1.000000000000000000, 0.000000000000000000, -0.000000000000000000 ) ) ;
#200 = CIRCLE ( 'NONE', #259, 3.949999999999999734 ) ;
#201 = EDGE_LOOP ( 'NONE', ( #297, #214, #139, #46 ) ) ;
#202 = CIRCLE ( 'NONE', #4, 3.750000000000000000 ) ;
#203 = VERTEX_POINT ( 'NONE', #112 ) ;
#204 = ADVANCED_FACE ( 'NONE', ( #298 ), #181, .T. ) ;
#205 = AXIS2_PLACEMENT_3D ( 'NONE', #175, #44, #69 ) ;
#206 = AXIS2_PLACEMENT_3D ( 'NONE', #238, #148, #146 ) ;
#207 = APPROVAL ( #37, 'NEURÈENÝ' ) ;
#208 = CARTESIAN_POINT ( 'NONE',  ( 0.000000000000000000, 0.000000000000000000, 5.000000000000000000 ) ) ;
#209 = DIRECTION ( 'NONE',  ( -0.000000000000000000, -0.000000000000000000, -1.000000000000000000 ) ) ;
#210 = TOROIDAL_SURFACE ( 'NONE', #205, 3.949999999999999734, 0.2000000000000000111 ) ;
#211 = DIRECTION ( 'NONE',  ( 1.000000000000000000, 0.000000000000000000, 0.000000000000000000 ) ) ;
#212 = AXIS2_PLACEMENT_3D ( 'NONE', #32, #237, #211 ) ;
#213 = PRODUCT ( '25be', '25be', '', ( #240 ) ) ;
#214 = ORIENTED_EDGE ( 'NONE', *, *, #27, .F. ) ;
#215 = ORIENTED_EDGE ( 'NONE', *, *, #26, .F. ) ;
#216 = CARTESIAN_POINT ( 'NONE',  ( 0.000000000000000000, 0.000000000000000000, 5.000000000000000000 ) ) ;
#217 = APPROVAL_ROLE ( '' ) ;
#218 = CARTESIAN_POINT ( 'NONE',  ( 3.949999999999999734, 0.000000000000000000, 5.199999999999982414 ) ) ;
#219 = VECTOR ( 'NONE', #101, 1000.000000000000000 ) ;
#220 = PERSON_AND_ORGANIZATION ( #256, #164 ) ;
#221 = CARTESIAN_POINT ( 'NONE',  ( -3.750000000000000000, 0.000000000000000000, 5.199999999999982414 ) ) ;
#222 = PERSON_AND_ORGANIZATION ( #256, #164 ) ;
#223 = VERTEX_POINT ( 'NONE', #91 ) ;
#224 = DIRECTION ( 'NONE',  ( 0.000000000000000000, 0.000000000000000000, 1.000000000000000000 ) ) ;
#225 = VECTOR ( 'NONE', #13, 1000.000000000000000 ) ;
#226 = DATE_TIME_ROLE ( 'classification_date' ) ;
#227 = ORIENTED_EDGE ( 'NONE', *, *, #186, .F. ) ;
#228 = CC_DESIGN_SECURITY_CLASSIFICATION ( #262, ( #285 ) ) ;
#229 = SHAPE_DEFINITION_REPRESENTATION ( #121, #75 ) ;
#230 = EDGE_LOOP ( 'NONE', ( #81, #300, #110, #125 ) ) ;
#231 = ADVANCED_FACE ( 'NONE', ( #128 ), #210, .F. ) ;
#232 = AXIS2_PLACEMENT_3D ( 'NONE', #168, #57, #291 ) ;
#233 = CC_DESIGN_PERSON_AND_ORGANIZATION_ASSIGNMENT ( #62, #153, ( #162 ) ) ;
#234 = VECTOR ( 'NONE', #255, 1000.000000000000000 ) ;
#235 = CARTESIAN_POINT ( 'NONE',  ( -6.000000000000000888, 0.000000000000000000, 5.000000000000000000 ) ) ;
#236 = CARTESIAN_POINT ( 'NONE',  ( 0.000000000000000000, 0.000000000000000000, 320.0000000000000000 ) ) ;
#237 = DIRECTION ( 'NONE',  ( 0.000000000000000000, 0.000000000000000000, 1.000000000000000000 ) ) ;
#238 = CARTESIAN_POINT ( 'NONE',  ( 0.000000000000000000, 0.000000000000000000, 5.199999999999982414 ) ) ;
#239 = AXIS2_PLACEMENT_3D ( 'NONE', #208, #246, #41 ) ;
#240 = MECHANICAL_CONTEXT ( 'NONE', #95, 'mechanical' ) ;
#241 = CIRCLE ( 'NONE', #40, 0.1999999999999996503 ) ;
#242 = DIRECTION ( 'NONE',  ( 0.000000000000000000, 0.000000000000000000, 1.000000000000000000 ) ) ;
#243 = CALENDAR_DATE ( 2022, 7, 7 ) ;
#244 = ADVANCED_FACE ( 'NONE', ( #105 ), #106, .T. ) ;
#245 = APPROVAL_PERSON_ORGANIZATION ( #303, #254, #20 ) ;
#246 = DIRECTION ( 'NONE',  ( 0.000000000000000000, 0.000000000000000000, 1.000000000000000000 ) ) ;
#247 = COORDINATED_UNIVERSAL_TIME_OFFSET ( 1, 0, .AHEAD. ) ;
#248 = CARTESIAN_POINT ( 'NONE',  ( 0.000000000000000000, 0.000000000000000000, 5.199999999999982414 ) ) ;
#249 = DATE_AND_TIME ( #243, #87 ) ;
#250 = DIRECTION ( 'NONE',  ( 0.000000000000000000, 0.000000000000000000, 1.000000000000000000 ) ) ;
#251 = AXIS2_PLACEMENT_3D ( 'NONE', #194, #250, #134 ) ;
#252 = ORIENTED_EDGE ( 'NONE', *, *, #63, .F. ) ;
#253 = DIRECTION ( 'NONE',  ( -0.000000000000000000, -0.000000000000000000, -1.000000000000000000 ) ) ;
#254 = APPROVAL ( #138, 'NEURÈENÝ' ) ;
#255 = DIRECTION ( 'NONE',  ( -0.000000000000000000, -0.000000000000000000, -1.000000000000000000 ) ) ;
#256 = PERSON ( 'NEURÈENÝ', 'NEURÈENÝ', 'NEURÈENÝ', ('NEURÈENÝ'), ('NEURÈENÝ'), ('NEURÈENÝ') ) ;
#257 = ORIENTED_EDGE ( 'NONE', *, *, #280, .F. ) ;
#258 = APPROVAL_DATE_TIME ( #94, #254 ) ;
#259 = AXIS2_PLACEMENT_3D ( 'NONE', #2, #56, #6 ) ;
#260 = ADVANCED_FACE ( 'NONE', ( #273 ), #294, .F. ) ;
#261 = ORIENTED_EDGE ( 'NONE', *, *, #52, .T. ) ;
#262 = SECURITY_CLASSIFICATION ( '', '', #171 ) ;
#263 = CC_DESIGN_PERSON_AND_ORGANIZATION_ASSIGNMENT ( #220, #127, ( #262 ) ) ;
#264 = AXIS2_PLACEMENT_3D ( 'NONE', #170, #242, #267 ) ;
#265 = CARTESIAN_POINT ( 'NONE',  ( 0.000000000000000000, 0.000000000000000000, 5.000000000000000000 ) ) ;
#266 = PLANE ( 'NONE',  #239 ) ;
#267 = DIRECTION ( 'NONE',  ( 1.000000000000000000, 0.000000000000000000, 0.000000000000000000 ) ) ;
#268 = FACE_OUTER_BOUND ( 'NONE', #169, .T. ) ;
#269 = APPROVAL_STATUS ( 'not_yet_approved' ) ;
#270 = APPLICATION_PROTOCOL_DEFINITION ( 'international standard', 'config_control_design', 1994, #95 ) ;
#271 = DIRECTION ( 'NONE',  ( 0.000000000000000000, 0.000000000000000000, 1.000000000000000000 ) ) ;
#272 = CC_DESIGN_DATE_AND_TIME_ASSIGNMENT ( #191, #292, ( #162 ) ) ;
#273 = FACE_OUTER_BOUND ( 'NONE', #116, .T. ) ;
#274 = DATE_AND_TIME ( #103, #301 ) ;
#275 = ORIENTED_EDGE ( 'NONE', *, *, #52, .F. ) ;
#276 = CARTESIAN_POINT ( 'NONE',  ( 0.000000000000000000, 0.000000000000000000, 320.0000000000000000 ) ) ;
#277 = ORIENTED_EDGE ( 'NONE', *, *, #83, .T. ) ;
#278 = EDGE_CURVE ( 'NONE', #71, #96, #196, .T. ) ;
#279 = APPLICATION_CONTEXT ( 'configuration controlled 3d designs of mechanical parts and assemblies' ) ;
#280 = EDGE_CURVE ( 'NONE', #156, #96, #61, .T. ) ;
#281 = COORDINATED_UNIVERSAL_TIME_OFFSET ( 1, 0, .AHEAD. ) ;
#282 = VERTEX_POINT ( 'NONE', #45 ) ;
#283 = CIRCLE ( 'NONE', #49, 3.750000000000000000 ) ;
#284 = CIRCLE ( 'NONE', #172, 6.000000000000000888 ) ;
#285 = PRODUCT_DEFINITION_FORMATION_WITH_SPECIFIED_SOURCE ( 'LIBOVOLNÝ', '', #213, .NOT_KNOWN. ) ;
#286 = DIRECTION ( 'NONE',  ( 1.000000000000000000, 0.000000000000000000, 0.000000000000000000 ) ) ;
#287 = AXIS2_PLACEMENT_3D ( 'NONE', #236, #102, #80 ) ;
#288 = DIRECTION ( 'NONE',  ( 1.000000000000000000, 0.000000000000000000, 0.000000000000000000 ) ) ;
#289 = CC_DESIGN_APPROVAL ( #207, ( #285 ) ) ;
#290 = CYLINDRICAL_SURFACE ( 'NONE', #287, 3.750000000000000000 ) ;
#291 = DIRECTION ( 'NONE',  ( -1.000000000000000000, 1.224646799147353454E-16, 0.000000000000000000 ) ) ;
#292 = DATE_TIME_ROLE ( 'creation_date' ) ;
#293 = CALENDAR_DATE ( 2022, 7, 7 ) ;
#294 = PLANE ( 'NONE',  #50 ) ;
#295 = COORDINATED_UNIVERSAL_TIME_OFFSET ( 1, 0, .AHEAD. ) ;
#296 = DIRECTION ( 'NONE',  ( -1.000000000000000000, 0.000000000000000000, 0.000000000000000000 ) ) ;
#297 = ORIENTED_EDGE ( 'NONE', *, *, #77, .F. ) ;
#298 = FACE_OUTER_BOUND ( 'NONE', #230, .T. ) ;
#299 = CARTESIAN_POINT ( 'NONE',  ( 0.000000000000000000, 0.000000000000000000, 0.000000000000000000 ) ) ;
#300 = ORIENTED_EDGE ( 'NONE', *, *, #280, .T. ) ;
#301 = LOCAL_TIME ( 12, 5, 0.000000000000000000, #295 ) ;
#302 = ADVANCED_FACE ( 'NONE', ( #152 ), #64, .T. ) ;
#303 = PERSON_AND_ORGANIZATION ( #256, #164 ) ;
#304 = VERTEX_POINT ( 'NONE', #88 ) ;
#305 = CC_DESIGN_PERSON_AND_ORGANIZATION_ASSIGNMENT ( #151, #130, ( #285 ) ) ;
#306 = CC_DESIGN_APPROVAL ( #108, ( #162 ) ) ;
#307 = LOCAL_TIME ( 12, 5, 0.000000000000000000, #281 ) ;
ENDSEC;
END-ISO-10303-21;
