ISO-10303-21;
HEADER;
FILE_DESCRIPTION (( 'STEP AP203' ),
    '1' );
FILE_NAME ('382d.STEP',
    '2022-07-07T09:34:03',
    ( '' ),
    ( '' ),
    'SwSTEP 2.0',
    'SolidWorks 2019',
    '' );
FILE_SCHEMA (( 'CONFIG_CONTROL_DESIGN' ));
ENDSEC;

DATA;
#1 = CARTESIAN_POINT ( 'NONE',  ( 0.000000000000000000, 0.000000000000000000, 8.000000000000000000 ) ) ;
#2 = FACE_OUTER_BOUND ( 'NONE', #204, .T. ) ;
#3 = PLANE ( 'NONE',  #71 ) ;
#4 = AXIS2_PLACEMENT_3D ( 'NONE', #220, #287, #195 ) ;
#5 = LINE ( 'NONE', #232, #82 ) ;
#6 = CC_DESIGN_SECURITY_CLASSIFICATION ( #143, ( #234 ) ) ;
#7 = FACE_OUTER_BOUND ( 'NONE', #142, .T. ) ;
#8 = COORDINATED_UNIVERSAL_TIME_OFFSET ( 1, 0, .AHEAD. ) ;
#9 = PERSON_AND_ORGANIZATION_ROLE ( 'design_owner' ) ;
#10 = APPLICATION_PROTOCOL_DEFINITION ( 'international standard', 'config_control_design', 1994, #153 ) ;
#11 = APPROVAL_STATUS ( 'not_yet_approved' ) ;
#12 = ORIENTED_EDGE ( 'NONE', *, *, #97, .F. ) ;
#13 = APPROVAL_ROLE ( '' ) ;
#14 = CC_DESIGN_APPROVAL ( #120, ( #177 ) ) ;
#15 = CC_DESIGN_DATE_AND_TIME_ASSIGNMENT ( #201, #158, ( #143 ) ) ;
#16 =( GEOMETRIC_REPRESENTATION_CONTEXT ( 3 ) GLOBAL_UNCERTAINTY_ASSIGNED_CONTEXT ( ( #149 ) ) GLOBAL_UNIT_ASSIGNED_CONTEXT ( ( #174, #276, #256 ) ) REPRESENTATION_CONTEXT ( 'NONE', 'WORKASPACE' ) );
#17 = CALENDAR_DATE ( 2022, 7, 7 ) ;
#18 = CARTESIAN_POINT ( 'NONE',  ( 13.00000000000000178, 1.592040838891559293E-15, 8.000000000000000000 ) ) ;
#19 = CIRCLE ( 'NONE', #250, 10.20000000000000107 ) ;
#20 = EDGE_CURVE ( 'NONE', #145, #187, #101, .T. ) ;
#21 = DIRECTION ( 'NONE',  ( -0.000000000000000000, -0.000000000000000000, -1.000000000000000000 ) ) ;
#22 = DIRECTION ( 'NONE',  ( 1.000000000000000000, 0.000000000000000000, 0.000000000000000000 ) ) ;
#23 = ADVANCED_FACE ( 'NONE', ( #50 ), #140, .T. ) ;
#24 = VERTEX_POINT ( 'NONE', #99 ) ;
#25 = ORIENTED_EDGE ( 'NONE', *, *, #157, .T. ) ;
#26 = DIRECTION ( 'NONE',  ( -1.000000000000000000, 1.224646799147353207E-16, 0.000000000000000000 ) ) ;
#27 = CARTESIAN_POINT ( 'NONE',  ( 0.000000000000000000, 0.000000000000000000, 323.0000000000000000 ) ) ;
#28 = EDGE_LOOP ( 'NONE', ( #67, #96 ) ) ;
#29 = DIRECTION ( 'NONE',  ( 0.000000000000000000, 0.000000000000000000, -1.000000000000000000 ) ) ;
#30 = DIRECTION ( 'NONE',  ( -0.000000000000000000, -0.000000000000000000, -1.000000000000000000 ) ) ;
#31 = DIRECTION ( 'NONE',  ( -0.000000000000000000, -0.000000000000000000, -1.000000000000000000 ) ) ;
#32 = AXIS2_PLACEMENT_3D ( 'NONE', #27, #122, #219 ) ;
#33 = DESIGN_CONTEXT ( 'detailed design', #153, 'design' ) ;
#34 = COORDINATED_UNIVERSAL_TIME_OFFSET ( 1, 0, .AHEAD. ) ;
#35 = PERSON_AND_ORGANIZATION ( #240, #134 ) ;
#36 = CALENDAR_DATE ( 2022, 7, 7 ) ;
#37 = AXIS2_PLACEMENT_3D ( 'NONE', #103, #192, #290 ) ;
#38 = EDGE_CURVE ( 'NONE', #238, #280, #46, .T. ) ;
#39 = CARTESIAN_POINT ( 'NONE',  ( 0.000000000000000000, 0.000000000000000000, 0.000000000000000000 ) ) ;
#40 = CC_DESIGN_APPROVAL ( #83, ( #143 ) ) ;
#41 = ORIENTED_EDGE ( 'NONE', *, *, #183, .F. ) ;
#42 = CARTESIAN_POINT ( 'NONE',  ( 10.00000000000000000, 1.224646799147353256E-15, 323.0000000000000000 ) ) ;
#43 = ORIENTED_EDGE ( 'NONE', *, *, #62, .F. ) ;
#44 = EDGE_CURVE ( 'NONE', #261, #299, #291, .T. ) ;
#45 = DIRECTION ( 'NONE',  ( 0.000000000000000000, 0.000000000000000000, 1.000000000000000000 ) ) ;
#46 = CIRCLE ( 'NONE', #64, 10.00000000000000000 ) ;
#47 = AXIS2_PLACEMENT_3D ( 'NONE', #105, #237, #127 ) ;
#48 = EDGE_LOOP ( 'NONE', ( #25, #165 ) ) ;
#49 = CARTESIAN_POINT ( 'NONE',  ( 0.000000000000000000, 0.000000000000000000, 8.000000000000000000 ) ) ;
#50 = FACE_OUTER_BOUND ( 'NONE', #167, .T. ) ;
#51 = ORIENTED_EDGE ( 'NONE', *, *, #38, .T. ) ;
#52 = ORIENTED_EDGE ( 'NONE', *, *, #160, .F. ) ;
#53 = DIRECTION ( 'NONE',  ( -0.000000000000000000, -0.000000000000000000, -1.000000000000000000 ) ) ;
#54 = FACE_OUTER_BOUND ( 'NONE', #301, .T. ) ;
#55 = ADVANCED_FACE ( 'NONE', ( #117 ), #3, .F. ) ;
#56 = LINE ( 'NONE', #270, #137 ) ;
#57 = EDGE_CURVE ( 'NONE', #239, #24, #199, .T. ) ;
#58 = CC_DESIGN_APPROVAL ( #300, ( #234 ) ) ;
#59 = DATE_TIME_ROLE ( 'creation_date' ) ;
#60 = MECHANICAL_CONTEXT ( 'NONE', #128, 'mechanical' ) ;
#61 = CC_DESIGN_PERSON_AND_ORGANIZATION_ASSIGNMENT ( #151, #129, ( #143 ) ) ;
#62 = EDGE_CURVE ( 'NONE', #261, #145, #241, .T. ) ;
#63 = APPROVAL_STATUS ( 'not_yet_approved' ) ;
#64 = AXIS2_PLACEMENT_3D ( 'NONE', #78, #121, #170 ) ;
#65 = PERSON_AND_ORGANIZATION_ROLE ( 'design_supplier' ) ;
#66 = DATE_AND_TIME ( #17, #175 ) ;
#67 = ORIENTED_EDGE ( 'NONE', *, *, #141, .T. ) ;
#68 = ORIENTED_EDGE ( 'NONE', *, *, #222, .T. ) ;
#69 = CARTESIAN_POINT ( 'NONE',  ( 0.000000000000000000, 0.000000000000000000, 8.199999999999985079 ) ) ;
#70 = CARTESIAN_POINT ( 'NONE',  ( 10.00000000000000000, 1.224646799147353256E-15, 323.0000000000000000 ) ) ;
#71 = AXIS2_PLACEMENT_3D ( 'NONE', #116, #216, #307 ) ;
#72 = ORIENTED_EDGE ( 'NONE', *, *, #109, .T. ) ;
#73 = EDGE_LOOP ( 'NONE', ( #184, #119, #132, #41 ) ) ;
#74 = CARTESIAN_POINT ( 'NONE',  ( -10.20000000000000107, 1.249139735130300365E-15, 8.199999999999985079 ) ) ;
#75 = DIRECTION ( 'NONE',  ( 1.000000000000000000, 0.000000000000000000, 0.000000000000000000 ) ) ;
#76 = AXIS2_PLACEMENT_3D ( 'NONE', #69, #197, #210 ) ;
#77 = CARTESIAN_POINT ( 'NONE',  ( 10.20000000000000107, 0.000000000000000000, 7.999999999999992895 ) ) ;
#78 = CARTESIAN_POINT ( 'NONE',  ( 0.000000000000000000, 0.000000000000000000, 323.0000000000000000 ) ) ;
#79 = EDGE_CURVE ( 'NONE', #228, #112, #278, .T. ) ;
#80 = DIRECTION ( 'NONE',  ( 1.000000000000000000, 0.000000000000000000, 0.000000000000000000 ) ) ;
#81 = DIRECTION ( 'NONE',  ( 1.000000000000000000, 0.000000000000000000, 0.000000000000000000 ) ) ;
#82 = VECTOR ( 'NONE', #223, 1000.000000000000000 ) ;
#83 = APPROVAL ( #185, 'NEURÈENÝ' ) ;
#84 = CARTESIAN_POINT ( 'NONE',  ( 10.00000000000000000, 1.224646799147353256E-15, 8.199999999999985079 ) ) ;
#85 = PERSON_AND_ORGANIZATION ( #240, #134 ) ;
#86 = COORDINATED_UNIVERSAL_TIME_OFFSET ( 1, 0, .AHEAD. ) ;
#87 = VECTOR ( 'NONE', #294, 1000.000000000000000 ) ;
#88 = ADVANCED_FACE ( 'NONE', ( #54 ), #147, .T. ) ;
#89 = ADVANCED_FACE ( 'NONE', ( #7 ), #265, .F. ) ;
#90 = EDGE_LOOP ( 'NONE', ( #202, #93 ) ) ;
#91 = AXIS2_PLACEMENT_3D ( 'NONE', #297, #178, #229 ) ;
#92 = CARTESIAN_POINT ( 'NONE',  ( 0.000000000000000000, 0.000000000000000000, 8.199999999999985079 ) ) ;
#93 = ORIENTED_EDGE ( 'NONE', *, *, #79, .F. ) ;
#94 = CARTESIAN_POINT ( 'NONE',  ( 10.20000000000000107, 0.000000000000000000, 8.199999999999985079 ) ) ;
#95 = APPROVAL_PERSON_ORGANIZATION ( #208, #83, #206 ) ;
#96 = ORIENTED_EDGE ( 'NONE', *, *, #20, .T. ) ;
#97 = EDGE_CURVE ( 'NONE', #238, #299, #135, .T. ) ;
#98 = CARTESIAN_POINT ( 'NONE',  ( 0.000000000000000000, 0.000000000000000000, 8.199999999999985079 ) ) ;
#99 = CARTESIAN_POINT ( 'NONE',  ( -13.00000000000000178, 0.000000000000000000, 8.000000000000000000 ) ) ;
#100 = CYLINDRICAL_SURFACE ( 'NONE', #37, 10.00000000000000000 ) ;
#101 = CIRCLE ( 'NONE', #136, 10.20000000000000107 ) ;
#102 = LOCAL_TIME ( 11, 34, 3.000000000000000000, #86 ) ;
#103 = CARTESIAN_POINT ( 'NONE',  ( 0.000000000000000000, 0.000000000000000000, 323.0000000000000000 ) ) ;
#104 = ADVANCED_FACE ( 'NONE', ( #272 ), #107, .F. ) ;
#105 = CARTESIAN_POINT ( 'NONE',  ( 0.000000000000000000, 0.000000000000000000, 8.199999999999985079 ) ) ;
#106 = DATE_AND_TIME ( #108, #286 ) ;
#107 = TOROIDAL_SURFACE ( 'NONE', #76, 10.20000000000000107, 0.2000000000000000111 ) ;
#108 = CALENDAR_DATE ( 2022, 7, 7 ) ;
#109 = EDGE_CURVE ( 'NONE', #24, #112, #148, .T. ) ;
#110 = SECURITY_CLASSIFICATION_LEVEL ( 'unclassified' ) ;
#111 = ORIENTED_EDGE ( 'NONE', *, *, #97, .T. ) ;
#112 = VERTEX_POINT ( 'NONE', #146 ) ;
#113 = AXIS2_PLACEMENT_3D ( 'NONE', #94, #221, #29 ) ;
#114 = CARTESIAN_POINT ( 'NONE',  ( 0.000000000000000000, 0.000000000000000000, 0.000000000000000000 ) ) ;
#115 = CARTESIAN_POINT ( 'NONE',  ( -10.20000000000000107, 1.249139735130300365E-15, 7.999999999999992895 ) ) ;
#116 = CARTESIAN_POINT ( 'NONE',  ( 0.000000000000000000, 0.000000000000000000, 0.000000000000000000 ) ) ;
#117 = FACE_OUTER_BOUND ( 'NONE', #90, .T. ) ;
#118 = AXIS2_PLACEMENT_3D ( 'NONE', #39, #155, #257 ) ;
#119 = ORIENTED_EDGE ( 'NONE', *, *, #62, .T. ) ;
#120 = APPROVAL ( #63, 'NEURÈENÝ' ) ;
#121 = DIRECTION ( 'NONE',  ( 0.000000000000000000, 0.000000000000000000, 1.000000000000000000 ) ) ;
#122 = DIRECTION ( 'NONE',  ( 0.000000000000000000, 0.000000000000000000, 1.000000000000000000 ) ) ;
#123 = DIRECTION ( 'NONE',  ( -0.000000000000000000, -0.000000000000000000, -1.000000000000000000 ) ) ;
#124 = CARTESIAN_POINT ( 'NONE',  ( 0.000000000000000000, 0.000000000000000000, 8.000000000000000000 ) ) ;
#125 = DIRECTION ( 'NONE',  ( -1.000000000000000000, 0.000000000000000000, 0.000000000000000000 ) ) ;
#126 = AXIS2_PLACEMENT_3D ( 'NONE', #1, #288, #144 ) ;
#127 = DIRECTION ( 'NONE',  ( 1.000000000000000000, 0.000000000000000000, 0.000000000000000000 ) ) ;
#128 = APPLICATION_CONTEXT ( 'configuration controlled 3d designs of mechanical parts and assemblies' ) ;
#129 = PERSON_AND_ORGANIZATION_ROLE ( 'classification_officer' ) ;
#130 = VECTOR ( 'NONE', #303, 1000.000000000000000 ) ;
#131 = APPROVAL_DATE_TIME ( #152, #120 ) ;
#132 = ORIENTED_EDGE ( 'NONE', *, *, #141, .F. ) ;
#133 = PERSON_AND_ORGANIZATION ( #240, #134 ) ;
#134 = ORGANIZATION ( 'NEURÈENÝ', 'NEURÈENÝ', '' ) ;
#135 = LINE ( 'NONE', #70, #87 ) ;
#136 = AXIS2_PLACEMENT_3D ( 'NONE', #218, #123, #22 ) ;
#137 = VECTOR ( 'NONE', #53, 1000.000000000000000 ) ;
#138 = DIRECTION ( 'NONE',  ( 1.000000000000000000, 0.000000000000000000, -0.000000000000000000 ) ) ;
#139 = DIRECTION ( 'NONE',  ( 0.000000000000000000, 0.000000000000000000, 1.000000000000000000 ) ) ;
#140 = PLANE ( 'NONE',  #4 ) ;
#141 = EDGE_CURVE ( 'NONE', #187, #145, #19, .T. ) ;
#142 = EDGE_LOOP ( 'NONE', ( #43, #214, #207, #268 ) ) ;
#143 = SECURITY_CLASSIFICATION ( '', '', #110 ) ;
#144 = DIRECTION ( 'NONE',  ( 1.000000000000000000, 0.000000000000000000, 0.000000000000000000 ) ) ;
#145 = VERTEX_POINT ( 'NONE', #115 ) ;
#146 = CARTESIAN_POINT ( 'NONE',  ( -13.00000000000000178, 0.000000000000000000, 0.000000000000000000 ) ) ;
#147 = CYLINDRICAL_SURFACE ( 'NONE', #179, 10.00000000000000000 ) ;
#148 = LINE ( 'NONE', #266, #130 ) ;
#149 = UNCERTAINTY_MEASURE_WITH_UNIT (LENGTH_MEASURE( 1.000000000000000082E-05 ), #174, 'distance_accuracy_value', 'NONE');
#150 = CIRCLE ( 'NONE', #194, 10.00000000000000000 ) ;
#151 = PERSON_AND_ORGANIZATION ( #240, #134 ) ;
#152 = DATE_AND_TIME ( #36, #156 ) ;
#153 = APPLICATION_CONTEXT ( 'configuration controlled 3d designs of mechanical parts and assemblies' ) ;
#154 = CC_DESIGN_PERSON_AND_ORGANIZATION_ASSIGNMENT ( #252, #227, ( #177 ) ) ;
#155 = DIRECTION ( 'NONE',  ( 0.000000000000000000, 0.000000000000000000, 1.000000000000000000 ) ) ;
#156 = LOCAL_TIME ( 11, 34, 3.000000000000000000, #8 ) ;
#157 = EDGE_CURVE ( 'NONE', #24, #239, #168, .T. ) ;
#158 = DATE_TIME_ROLE ( 'classification_date' ) ;
#159 = CALENDAR_DATE ( 2022, 7, 7 ) ;
#160 = EDGE_CURVE ( 'NONE', #239, #228, #56, .T. ) ;
#161 = ORIENTED_EDGE ( 'NONE', *, *, #247, .T. ) ;
#162 = AXIS2_PLACEMENT_3D ( 'NONE', #235, #21, #186 ) ;
#163 = EDGE_CURVE ( 'NONE', #299, #261, #150, .T. ) ;
#164 = ORIENTED_EDGE ( 'NONE', *, *, #217, .F. ) ;
#165 = ORIENTED_EDGE ( 'NONE', *, *, #57, .T. ) ;
#166 = FACE_OUTER_BOUND ( 'NONE', #48, .T. ) ;
#167 = EDGE_LOOP ( 'NONE', ( #68, #51 ) ) ;
#168 = CIRCLE ( 'NONE', #274, 13.00000000000000178 ) ;
#169 = ORIENTED_EDGE ( 'NONE', *, *, #109, .F. ) ;
#170 = DIRECTION ( 'NONE',  ( 1.000000000000000000, 0.000000000000000000, 0.000000000000000000 ) ) ;
#171 = DIRECTION ( 'NONE',  ( 0.000000000000000000, 0.000000000000000000, 1.000000000000000000 ) ) ;
#172 = CARTESIAN_POINT ( 'NONE',  ( 13.00000000000000178, 1.592040838891559293E-15, 0.000000000000000000 ) ) ;
#173 = DIRECTION ( 'NONE',  ( 0.000000000000000000, 0.000000000000000000, 1.000000000000000000 ) ) ;
#174 =( LENGTH_UNIT ( ) NAMED_UNIT ( * ) SI_UNIT ( .MILLI., .METRE. ) );
#175 = LOCAL_TIME ( 11, 34, 3.000000000000000000, #231 ) ;
#176 = COORDINATED_UNIVERSAL_TIME_OFFSET ( 1, 0, .AHEAD. ) ;
#177 = PRODUCT_DEFINITION ( 'NEZNÁMÝ', '', #234, #33 ) ;
#178 = DIRECTION ( 'NONE',  ( -0.000000000000000000, -0.000000000000000000, -1.000000000000000000 ) ) ;
#179 = AXIS2_PLACEMENT_3D ( 'NONE', #248, #30, #125 ) ;
#180 = DATE_AND_TIME ( #159, #102 ) ;
#181 = ORIENTED_EDGE ( 'NONE', *, *, #44, .T. ) ;
#182 = DIRECTION ( 'NONE',  ( 0.000000000000000000, 0.000000000000000000, 1.000000000000000000 ) ) ;
#183 = EDGE_CURVE ( 'NONE', #299, #187, #306, .T. ) ;
#184 = ORIENTED_EDGE ( 'NONE', *, *, #44, .F. ) ;
#185 = APPROVAL_STATUS ( 'not_yet_approved' ) ;
#186 = DIRECTION ( 'NONE',  ( -1.000000000000000000, 0.000000000000000000, 0.000000000000000000 ) ) ;
#187 = VERTEX_POINT ( 'NONE', #77 ) ;
#188 = APPROVAL_PERSON_ORGANIZATION ( #133, #300, #13 ) ;
#189 = APPROVAL_PERSON_ORGANIZATION ( #198, #120, #273 ) ;
#190 = ORIENTED_EDGE ( 'NONE', *, *, #79, .T. ) ;
#191 = CARTESIAN_POINT ( 'NONE',  ( 0.000000000000000000, 0.000000000000000000, 0.000000000000000000 ) ) ;
#192 = DIRECTION ( 'NONE',  ( -0.000000000000000000, -0.000000000000000000, -1.000000000000000000 ) ) ;
#193 = PRODUCT_RELATED_PRODUCT_CATEGORY ( 'detail', '', ( #292 ) ) ;
#194 = AXIS2_PLACEMENT_3D ( 'NONE', #92, #260, #246 ) ;
#195 = DIRECTION ( 'NONE',  ( 1.000000000000000000, 0.000000000000000000, -0.000000000000000000 ) ) ;
#196 = CARTESIAN_POINT ( 'NONE',  ( -10.00000000000000000, 0.000000000000000000, 323.0000000000000000 ) ) ;
#197 = DIRECTION ( 'NONE',  ( 0.000000000000000000, 0.000000000000000000, 1.000000000000000000 ) ) ;
#198 = PERSON_AND_ORGANIZATION ( #240, #134 ) ;
#199 = CIRCLE ( 'NONE', #126, 13.00000000000000178 ) ;
#200 = APPLICATION_PROTOCOL_DEFINITION ( 'international standard', 'config_control_design', 1994, #128 ) ;
#201 = DATE_AND_TIME ( #277, #230 ) ;
#202 = ORIENTED_EDGE ( 'NONE', *, *, #247, .F. ) ;
#203 = APPROVAL_DATE_TIME ( #180, #300 ) ;
#204 = EDGE_LOOP ( 'NONE', ( #267, #205, #190, #169 ) ) ;
#205 = ORIENTED_EDGE ( 'NONE', *, *, #160, .T. ) ;
#206 = APPROVAL_ROLE ( '' ) ;
#207 = ORIENTED_EDGE ( 'NONE', *, *, #183, .T. ) ;
#208 = PERSON_AND_ORGANIZATION ( #240, #134 ) ;
#209 = AXIS2_PLACEMENT_3D ( 'NONE', #74, #243, #26 ) ;
#210 = DIRECTION ( 'NONE',  ( 1.000000000000000000, 0.000000000000000000, 0.000000000000000000 ) ) ;
#211 = ORIENTED_EDGE ( 'NONE', *, *, #217, .T. ) ;
#212 = SHAPE_DEFINITION_REPRESENTATION ( #245, #225 ) ;
#213 = PLANE ( 'NONE',  #254 ) ;
#214 = ORIENTED_EDGE ( 'NONE', *, *, #163, .F. ) ;
#215 = AXIS2_PLACEMENT_3D ( 'NONE', #191, #171, #271 ) ;
#216 = DIRECTION ( 'NONE',  ( 0.000000000000000000, 0.000000000000000000, 1.000000000000000000 ) ) ;
#217 = EDGE_CURVE ( 'NONE', #280, #261, #5, .T. ) ;
#218 = CARTESIAN_POINT ( 'NONE',  ( 0.000000000000000000, 0.000000000000000000, 8.000000000000000000 ) ) ;
#219 = DIRECTION ( 'NONE',  ( 1.000000000000000000, 0.000000000000000000, 0.000000000000000000 ) ) ;
#220 = CARTESIAN_POINT ( 'NONE',  ( 0.000000000000000000, 0.000000000000000000, 323.0000000000000000 ) ) ;
#221 = DIRECTION ( 'NONE',  ( 0.000000000000000000, -1.000000000000000000, 0.000000000000000000 ) ) ;
#222 = EDGE_CURVE ( 'NONE', #280, #238, #226, .T. ) ;
#223 = DIRECTION ( 'NONE',  ( -0.000000000000000000, -0.000000000000000000, -1.000000000000000000 ) ) ;
#224 = FACE_OUTER_BOUND ( 'NONE', #284, .T. ) ;
#225 = ADVANCED_BREP_SHAPE_REPRESENTATION ( '382d', ( #242, #118 ), #16 ) ;
#226 = CIRCLE ( 'NONE', #32, 10.00000000000000000 ) ;
#227 = PERSON_AND_ORGANIZATION_ROLE ( 'creator' ) ;
#228 = VERTEX_POINT ( 'NONE', #172 ) ;
#229 = DIRECTION ( 'NONE',  ( -1.000000000000000000, 0.000000000000000000, 0.000000000000000000 ) ) ;
#230 = LOCAL_TIME ( 11, 34, 3.000000000000000000, #34 ) ;
#231 = COORDINATED_UNIVERSAL_TIME_OFFSET ( 1, 0, .AHEAD. ) ;
#232 = CARTESIAN_POINT ( 'NONE',  ( -10.00000000000000000, 0.000000000000000000, 323.0000000000000000 ) ) ;
#233 = ORIENTED_EDGE ( 'NONE', *, *, #163, .T. ) ;
#234 = PRODUCT_DEFINITION_FORMATION_WITH_SPECIFIED_SOURCE ( 'LIBOVOLNÝ', '', #292, .NOT_KNOWN. ) ;
#235 = CARTESIAN_POINT ( 'NONE',  ( 0.000000000000000000, 0.000000000000000000, 8.000000000000000000 ) ) ;
#236 = ORIENTED_EDGE ( 'NONE', *, *, #157, .F. ) ;
#237 = DIRECTION ( 'NONE',  ( 0.000000000000000000, 0.000000000000000000, 1.000000000000000000 ) ) ;
#238 = VERTEX_POINT ( 'NONE', #42 ) ;
#239 = VERTEX_POINT ( 'NONE', #18 ) ;
#240 = PERSON ( 'NEURÈENÝ', 'NEURÈENÝ', 'NEURÈENÝ', ('NEURÈENÝ'), ('NEURÈENÝ'), ('NEURÈENÝ') ) ;
#241 = CIRCLE ( 'NONE', #209, 0.2000000000000005107 ) ;
#242 = MANIFOLD_SOLID_BREP ( 'Zaoblit1', #285 ) ;
#243 = DIRECTION ( 'NONE',  ( 1.224646799147353207E-16, 1.000000000000000000, -0.000000000000000000 ) ) ;
#244 = ORIENTED_EDGE ( 'NONE', *, *, #222, .F. ) ;
#245 = PRODUCT_DEFINITION_SHAPE ( 'NONE', 'NONE',  #177 ) ;
#246 = DIRECTION ( 'NONE',  ( 1.000000000000000000, 0.000000000000000000, 0.000000000000000000 ) ) ;
#247 = EDGE_CURVE ( 'NONE', #112, #228, #259, .T. ) ;
#248 = CARTESIAN_POINT ( 'NONE',  ( 0.000000000000000000, 0.000000000000000000, 323.0000000000000000 ) ) ;
#249 = CARTESIAN_POINT ( 'NONE',  ( -10.00000000000000000, 0.000000000000000000, 8.199999999999985079 ) ) ;
#250 = AXIS2_PLACEMENT_3D ( 'NONE', #124, #31, #80 ) ;
#251 = PERSON_AND_ORGANIZATION ( #240, #134 ) ;
#252 = PERSON_AND_ORGANIZATION ( #240, #134 ) ;
#253 = CC_DESIGN_PERSON_AND_ORGANIZATION_ASSIGNMENT ( #35, #9, ( #292 ) ) ;
#254 = AXIS2_PLACEMENT_3D ( 'NONE', #263, #45, #138 ) ;
#255 = CC_DESIGN_PERSON_AND_ORGANIZATION_ASSIGNMENT ( #85, #65, ( #234 ) ) ;
#256 =( NAMED_UNIT ( * ) SI_UNIT ( $, .STERADIAN. ) SOLID_ANGLE_UNIT ( ) );
#257 = DIRECTION ( 'NONE',  ( 1.000000000000000000, 0.000000000000000000, 0.000000000000000000 ) ) ;
#258 = ADVANCED_FACE ( 'NONE', ( #293, #166 ), #213, .T. ) ;
#259 = CIRCLE ( 'NONE', #279, 13.00000000000000178 ) ;
#260 = DIRECTION ( 'NONE',  ( 0.000000000000000000, 0.000000000000000000, 1.000000000000000000 ) ) ;
#261 = VERTEX_POINT ( 'NONE', #249 ) ;
#262 = ADVANCED_FACE ( 'NONE', ( #2 ), #304, .T. ) ;
#263 = CARTESIAN_POINT ( 'NONE',  ( 0.000000000000000000, 0.000000000000000000, 8.000000000000000000 ) ) ;
#264 = CC_DESIGN_PERSON_AND_ORGANIZATION_ASSIGNMENT ( #251, #296, ( #234 ) ) ;
#265 = TOROIDAL_SURFACE ( 'NONE', #47, 10.20000000000000107, 0.2000000000000000111 ) ;
#266 = CARTESIAN_POINT ( 'NONE',  ( -13.00000000000000178, 0.000000000000000000, 8.000000000000000000 ) ) ;
#267 = ORIENTED_EDGE ( 'NONE', *, *, #57, .F. ) ;
#268 = ORIENTED_EDGE ( 'NONE', *, *, #20, .F. ) ;
#269 = EDGE_LOOP ( 'NONE', ( #289, #111, #233, #164 ) ) ;
#270 = CARTESIAN_POINT ( 'NONE',  ( 13.00000000000000178, 1.592040838891559293E-15, 8.000000000000000000 ) ) ;
#271 = DIRECTION ( 'NONE',  ( 1.000000000000000000, 0.000000000000000000, 0.000000000000000000 ) ) ;
#272 = FACE_OUTER_BOUND ( 'NONE', #73, .T. ) ;
#273 = APPROVAL_ROLE ( '' ) ;
#274 = AXIS2_PLACEMENT_3D ( 'NONE', #49, #139, #81 ) ;
#275 = ADVANCED_FACE ( 'NONE', ( #283 ), #100, .T. ) ;
#276 =( NAMED_UNIT ( * ) PLANE_ANGLE_UNIT ( ) SI_UNIT ( $, .RADIAN. ) );
#277 = CALENDAR_DATE ( 2022, 7, 7 ) ;
#278 = CIRCLE ( 'NONE', #215, 13.00000000000000178 ) ;
#279 = AXIS2_PLACEMENT_3D ( 'NONE', #114, #182, #282 ) ;
#280 = VERTEX_POINT ( 'NONE', #196 ) ;
#281 = APPROVAL_DATE_TIME ( #66, #83 ) ;
#282 = DIRECTION ( 'NONE',  ( 1.000000000000000000, 0.000000000000000000, 0.000000000000000000 ) ) ;
#283 = FACE_OUTER_BOUND ( 'NONE', #269, .T. ) ;
#284 = EDGE_LOOP ( 'NONE', ( #52, #236, #72, #161 ) ) ;
#285 = CLOSED_SHELL ( 'NONE', ( #104, #275, #262, #305, #258, #55, #88, #23, #89 ) ) ;
#286 = LOCAL_TIME ( 11, 34, 3.000000000000000000, #176 ) ;
#287 = DIRECTION ( 'NONE',  ( 0.000000000000000000, 0.000000000000000000, 1.000000000000000000 ) ) ;
#288 = DIRECTION ( 'NONE',  ( 0.000000000000000000, 0.000000000000000000, 1.000000000000000000 ) ) ;
#289 = ORIENTED_EDGE ( 'NONE', *, *, #38, .F. ) ;
#290 = DIRECTION ( 'NONE',  ( -1.000000000000000000, 0.000000000000000000, 0.000000000000000000 ) ) ;
#291 = CIRCLE ( 'NONE', #298, 10.00000000000000000 ) ;
#292 = PRODUCT ( '382d', '382d', '', ( #60 ) ) ;
#293 = FACE_BOUND ( 'NONE', #28, .T. ) ;
#294 = DIRECTION ( 'NONE',  ( -0.000000000000000000, -0.000000000000000000, -1.000000000000000000 ) ) ;
#295 = CYLINDRICAL_SURFACE ( 'NONE', #91, 13.00000000000000178 ) ;
#296 = PERSON_AND_ORGANIZATION_ROLE ( 'creator' ) ;
#297 = CARTESIAN_POINT ( 'NONE',  ( 0.000000000000000000, 0.000000000000000000, 8.000000000000000000 ) ) ;
#298 = AXIS2_PLACEMENT_3D ( 'NONE', #98, #173, #75 ) ;
#299 = VERTEX_POINT ( 'NONE', #84 ) ;
#300 = APPROVAL ( #11, 'NEURÈENÝ' ) ;
#301 = EDGE_LOOP ( 'NONE', ( #12, #244, #211, #181 ) ) ;
#302 = CC_DESIGN_DATE_AND_TIME_ASSIGNMENT ( #106, #59, ( #177 ) ) ;
#303 = DIRECTION ( 'NONE',  ( -0.000000000000000000, -0.000000000000000000, -1.000000000000000000 ) ) ;
#304 = CYLINDRICAL_SURFACE ( 'NONE', #162, 13.00000000000000178 ) ;
#305 = ADVANCED_FACE ( 'NONE', ( #224 ), #295, .T. ) ;
#306 = CIRCLE ( 'NONE', #113, 0.2000000000000005107 ) ;
#307 = DIRECTION ( 'NONE',  ( 1.000000000000000000, 0.000000000000000000, -0.000000000000000000 ) ) ;
ENDSEC;
END-ISO-10303-21;
