ISO-10303-21;
HEADER;
FILE_DESCRIPTION (( 'STEP AP203' ),
    '1' );
FILE_NAME ('2bc9.STEP',
    '2023-02-12T12:31:27',
    ( '' ),
    ( '' ),
    'SwSTEP 2.0',
    'SolidWorks 2019',
    '' );
FILE_SCHEMA (( 'CONFIG_CONTROL_DESIGN' ));
ENDSEC;

DATA;
#1 = VECTOR ( 'NONE', #124, 1000.000000000000000 ) ;
#2 = CARTESIAN_POINT ( 'NONE',  ( -2.500000000000000000, 0.000000000000000000, 125.0000000000000000 ) ) ;
#3 = CC_DESIGN_DATE_AND_TIME_ASSIGNMENT ( #254, #128, ( #55 ) ) ;
#4 = PERSON_AND_ORGANIZATION_ROLE ( 'creator' ) ;
#5 = APPROVAL_ROLE ( '' ) ;
#6 = ORIENTED_EDGE ( 'NONE', *, *, #14, .F. ) ;
#7 = VERTEX_POINT ( 'NONE', #157 ) ;
#8 = CALENDAR_DATE ( 2023, 12, 2 ) ;
#9 = SECURITY_CLASSIFICATION ( '', '', #112 ) ;
#10 = PRODUCT_RELATED_PRODUCT_CATEGORY ( 'detail', '', ( #38 ) ) ;
#11 = DIRECTION ( 'NONE',  ( -0.000000000000000000, -0.000000000000000000, -1.000000000000000000 ) ) ;
#12 = APPLICATION_CONTEXT ( 'configuration controlled 3d designs of mechanical parts and assemblies' ) ;
#13 = ORIENTED_EDGE ( 'NONE', *, *, #96, .T. ) ;
#14 = EDGE_CURVE ( 'NONE', #171, #37, #48, .T. ) ;
#15 = LINE ( 'NONE', #84, #155 ) ;
#16 = EDGE_LOOP ( 'NONE', ( #139, #145, #133, #86 ) ) ;
#17 = DIRECTION ( 'NONE',  ( 0.000000000000000000, 0.000000000000000000, 1.000000000000000000 ) ) ;
#18 = ORIENTED_EDGE ( 'NONE', *, *, #146, .F. ) ;
#19 = AXIS2_PLACEMENT_3D ( 'NONE', #176, #53, #100 ) ;
#20 = FACE_OUTER_BOUND ( 'NONE', #81, .T. ) ;
#21 = CIRCLE ( 'NONE', #150, 2.500000000000000000 ) ;
#22 = CARTESIAN_POINT ( 'NONE',  ( 0.000000000000000000, 0.000000000000000000, 3.000000000000000000 ) ) ;
#23 = ADVANCED_FACE ( 'NONE', ( #205 ), #65, .T. ) ;
#24 = DIRECTION ( 'NONE',  ( 0.000000000000000000, 0.000000000000000000, 1.000000000000000000 ) ) ;
#25 = DIRECTION ( 'NONE',  ( 1.000000000000000000, 0.000000000000000000, 0.000000000000000000 ) ) ;
#26 = DIRECTION ( 'NONE',  ( 0.000000000000000000, 0.000000000000000000, 1.000000000000000000 ) ) ;
#27 = APPROVAL_STATUS ( 'not_yet_approved' ) ;
#28 = CC_DESIGN_APPROVAL ( #210, ( #9 ) ) ;
#29 = DATE_AND_TIME ( #68, #60 ) ;
#30 = CC_DESIGN_PERSON_AND_ORGANIZATION_ASSIGNMENT ( #113, #170, ( #111 ) ) ;
#31 = ORIENTED_EDGE ( 'NONE', *, *, #39, .F. ) ;
#32 = CIRCLE ( 'NONE', #117, 2.500000000000000000 ) ;
#33 = DIRECTION ( 'NONE',  ( -1.000000000000000000, 0.000000000000000000, 0.000000000000000000 ) ) ;
#34 = VERTEX_POINT ( 'NONE', #45 ) ;
#35 = CARTESIAN_POINT ( 'NONE',  ( 2.500000000000000000, 3.061616997868382648E-16, 125.0000000000000000 ) ) ;
#36 = FACE_OUTER_BOUND ( 'NONE', #132, .T. ) ;
#37 = VERTEX_POINT ( 'NONE', #89 ) ;
#38 = PRODUCT ( '2bc9', '2bc9', '', ( #153 ) ) ;
#39 = EDGE_CURVE ( 'NONE', #7, #219, #249, .T. ) ;
#40 = FACE_OUTER_BOUND ( 'NONE', #83, .T. ) ;
#41 = DIRECTION ( 'NONE',  ( 1.000000000000000000, 0.000000000000000000, 0.000000000000000000 ) ) ;
#42 = DIRECTION ( 'NONE',  ( 1.000000000000000000, 0.000000000000000000, 0.000000000000000000 ) ) ;
#43 = CARTESIAN_POINT ( 'NONE',  ( 2.500000000000000000, 3.061616997868382648E-16, 125.0000000000000000 ) ) ;
#44 = CC_DESIGN_PERSON_AND_ORGANIZATION_ASSIGNMENT ( #73, #224, ( #38 ) ) ;
#45 = CARTESIAN_POINT ( 'NONE',  ( 2.500000000000000000, 3.061616997868382648E-16, 3.000000000000000000 ) ) ;
#46 = CARTESIAN_POINT ( 'NONE',  ( -5.000000000000000000, 0.000000000000000000, 3.000000000000000000 ) ) ;
#47 = EDGE_CURVE ( 'NONE', #246, #7, #162, .T. ) ;
#48 = LINE ( 'NONE', #2, #239 ) ;
#49 = ORIENTED_EDGE ( 'NONE', *, *, #39, .T. ) ;
#50 = FACE_BOUND ( 'NONE', #236, .T. ) ;
#51 = ORIENTED_EDGE ( 'NONE', *, *, #96, .F. ) ;
#52 = AXIS2_PLACEMENT_3D ( 'NONE', #242, #85, #137 ) ;
#53 = DIRECTION ( 'NONE',  ( 0.000000000000000000, 0.000000000000000000, 1.000000000000000000 ) ) ;
#54 = EDGE_LOOP ( 'NONE', ( #104, #56, #193, #49 ) ) ;
#55 = PRODUCT_DEFINITION ( 'NEZNÁMÝ', '', #111, #231 ) ;
#56 = ORIENTED_EDGE ( 'NONE', *, *, #190, .F. ) ;
#57 = DIRECTION ( 'NONE',  ( 1.000000000000000000, 0.000000000000000000, 0.000000000000000000 ) ) ;
#58 = DATE_TIME_ROLE ( 'classification_date' ) ;
#59 = DIRECTION ( 'NONE',  ( -0.000000000000000000, -0.000000000000000000, -1.000000000000000000 ) ) ;
#60 = LOCAL_TIME ( 13, 31, 27.00000000000000000, #149 ) ;
#61 = CC_DESIGN_SECURITY_CLASSIFICATION ( #9, ( #111 ) ) ;
#62 = CIRCLE ( 'NONE', #52, 2.500000000000000000 ) ;
#63 = CC_DESIGN_PERSON_AND_ORGANIZATION_ASSIGNMENT ( #164, #4, ( #55 ) ) ;
#64 = CYLINDRICAL_SURFACE ( 'NONE', #188, 2.500000000000000000 ) ;
#65 = CYLINDRICAL_SURFACE ( 'NONE', #163, 5.000000000000000000 ) ;
#66 = EDGE_CURVE ( 'NONE', #98, #246, #200, .T. ) ;
#67 = VECTOR ( 'NONE', #77, 1000.000000000000000 ) ;
#68 = CALENDAR_DATE ( 2023, 12, 2 ) ;
#69 = FACE_OUTER_BOUND ( 'NONE', #122, .T. ) ;
#70 = DIRECTION ( 'NONE',  ( 0.000000000000000000, 0.000000000000000000, 1.000000000000000000 ) ) ;
#71 = ORIENTED_EDGE ( 'NONE', *, *, #47, .F. ) ;
#72 = LOCAL_TIME ( 13, 31, 27.00000000000000000, #174 ) ;
#73 = PERSON_AND_ORGANIZATION ( #144, #250 ) ;
#74 = DIRECTION ( 'NONE',  ( 1.000000000000000000, 0.000000000000000000, -0.000000000000000000 ) ) ;
#75 = AXIS2_PLACEMENT_3D ( 'NONE', #142, #105, #41 ) ;
#76 = PERSON_AND_ORGANIZATION ( #144, #250 ) ;
#77 = DIRECTION ( 'NONE',  ( -0.000000000000000000, -0.000000000000000000, -1.000000000000000000 ) ) ;
#78 = COORDINATED_UNIVERSAL_TIME_OFFSET ( 1, 0, .AHEAD. ) ;
#79 = CARTESIAN_POINT ( 'NONE',  ( 0.000000000000000000, 0.000000000000000000, 3.000000000000000000 ) ) ;
#80 = AXIS2_PLACEMENT_3D ( 'NONE', #125, #121, #143 ) ;
#81 = EDGE_LOOP ( 'NONE', ( #221, #114, #141, #71 ) ) ;
#82 = PERSON_AND_ORGANIZATION_ROLE ( 'creator' ) ;
#83 = EDGE_LOOP ( 'NONE', ( #51, #198, #119, #6 ) ) ;
#84 = CARTESIAN_POINT ( 'NONE',  ( 5.000000000000000000, 6.123233995736766282E-16, 3.000000000000000000 ) ) ;
#85 = DIRECTION ( 'NONE',  ( 0.000000000000000000, 0.000000000000000000, 1.000000000000000000 ) ) ;
#86 = ORIENTED_EDGE ( 'NONE', *, *, #90, .T. ) ;
#87 = ORIENTED_EDGE ( 'NONE', *, *, #185, .F. ) ;
#88 = CYLINDRICAL_SURFACE ( 'NONE', #80, 5.000000000000000000 ) ;
#89 = CARTESIAN_POINT ( 'NONE',  ( -2.500000000000000000, 0.000000000000000000, 3.000000000000000000 ) ) ;
#90 = EDGE_CURVE ( 'NONE', #37, #34, #32, .T. ) ;
#91 = APPLICATION_PROTOCOL_DEFINITION ( 'international standard', 'config_control_design', 1994, #12 ) ;
#92 = PERSON_AND_ORGANIZATION_ROLE ( 'classification_officer' ) ;
#93 = CC_DESIGN_APPROVAL ( #131, ( #55 ) ) ;
#94 = PERSON_AND_ORGANIZATION ( #144, #250 ) ;
#95 = CC_DESIGN_DATE_AND_TIME_ASSIGNMENT ( #226, #58, ( #9 ) ) ;
#96 = EDGE_CURVE ( 'NONE', #99, #171, #21, .T. ) ;
#97 = APPROVAL_DATE_TIME ( #29, #187 ) ;
#98 = VERTEX_POINT ( 'NONE', #229 ) ;
#99 = VERTEX_POINT ( 'NONE', #43 ) ;
#100 = DIRECTION ( 'NONE',  ( 1.000000000000000000, 0.000000000000000000, -0.000000000000000000 ) ) ;
#101 = PLANE ( 'NONE',  #191 ) ;
#102 = DIRECTION ( 'NONE',  ( 0.000000000000000000, 0.000000000000000000, 1.000000000000000000 ) ) ;
#103 = ADVANCED_FACE ( 'NONE', ( #232 ), #64, .T. ) ;
#104 = ORIENTED_EDGE ( 'NONE', *, *, #138, .F. ) ;
#105 = DIRECTION ( 'NONE',  ( 0.000000000000000000, 0.000000000000000000, 1.000000000000000000 ) ) ;
#106 = APPROVAL_PERSON_ORGANIZATION ( #186, #131, #252 ) ;
#107 = MANIFOLD_SOLID_BREP ( 'Pøidat vysunutím3', #196 ) ;
#108 = CYLINDRICAL_SURFACE ( 'NONE', #182, 2.500000000000000000 ) ;
#109 = AXIS2_PLACEMENT_3D ( 'NONE', #197, #70, #172 ) ;
#110 = DIRECTION ( 'NONE',  ( 1.000000000000000000, 0.000000000000000000, 0.000000000000000000 ) ) ;
#111 = PRODUCT_DEFINITION_FORMATION_WITH_SPECIFIED_SOURCE ( 'LIBOVOLNÝ', '', #38, .NOT_KNOWN. ) ;
#112 = SECURITY_CLASSIFICATION_LEVEL ( 'unclassified' ) ;
#113 = PERSON_AND_ORGANIZATION ( #144, #250 ) ;
#114 = ORIENTED_EDGE ( 'NONE', *, *, #138, .T. ) ;
#115 = SHAPE_DEFINITION_REPRESENTATION ( #199, #213 ) ;
#116 = FACE_OUTER_BOUND ( 'NONE', #214, .T. ) ;
#117 = AXIS2_PLACEMENT_3D ( 'NONE', #22, #26, #25 ) ;
#118 = DIRECTION ( 'NONE',  ( -0.000000000000000000, -0.000000000000000000, -1.000000000000000000 ) ) ;
#119 = ORIENTED_EDGE ( 'NONE', *, *, #146, .T. ) ;
#120 = ADVANCED_FACE ( 'NONE', ( #69 ), #220, .T. ) ;
#121 = DIRECTION ( 'NONE',  ( -0.000000000000000000, -0.000000000000000000, -1.000000000000000000 ) ) ;
#122 = EDGE_LOOP ( 'NONE', ( #216, #13 ) ) ;
#123 = DIRECTION ( 'NONE',  ( -1.000000000000000000, 0.000000000000000000, 0.000000000000000000 ) ) ;
#124 = DIRECTION ( 'NONE',  ( -0.000000000000000000, -0.000000000000000000, -1.000000000000000000 ) ) ;
#125 = CARTESIAN_POINT ( 'NONE',  ( 0.000000000000000000, 0.000000000000000000, 3.000000000000000000 ) ) ;
#126 =( GEOMETRIC_REPRESENTATION_CONTEXT ( 3 ) GLOBAL_UNCERTAINTY_ASSIGNED_CONTEXT ( ( #228 ) ) GLOBAL_UNIT_ASSIGNED_CONTEXT ( ( #243, #140, #156 ) ) REPRESENTATION_CONTEXT ( 'NONE', 'WORKASPACE' ) );
#127 = DIRECTION ( 'NONE',  ( -1.000000000000000000, 0.000000000000000000, 0.000000000000000000 ) ) ;
#128 = DATE_TIME_ROLE ( 'creation_date' ) ;
#129 = CARTESIAN_POINT ( 'NONE',  ( 0.000000000000000000, 0.000000000000000000, 3.000000000000000000 ) ) ;
#130 = CALENDAR_DATE ( 2023, 12, 2 ) ;
#131 = APPROVAL ( #27, 'NEURÈENÝ' ) ;
#132 = EDGE_LOOP ( 'NONE', ( #31, #87 ) ) ;
#133 = ORIENTED_EDGE ( 'NONE', *, *, #14, .T. ) ;
#134 = DATE_AND_TIME ( #8, #72 ) ;
#135 = CC_DESIGN_PERSON_AND_ORGANIZATION_ASSIGNMENT ( #218, #82, ( #111 ) ) ;
#136 = DIRECTION ( 'NONE',  ( 1.000000000000000000, 0.000000000000000000, -0.000000000000000000 ) ) ;
#137 = DIRECTION ( 'NONE',  ( 1.000000000000000000, 0.000000000000000000, 0.000000000000000000 ) ) ;
#138 = EDGE_CURVE ( 'NONE', #98, #219, #15, .T. ) ;
#139 = ORIENTED_EDGE ( 'NONE', *, *, #247, .F. ) ;
#140 =( NAMED_UNIT ( * ) PLANE_ANGLE_UNIT ( ) SI_UNIT ( $, .RADIAN. ) );
#141 = ORIENTED_EDGE ( 'NONE', *, *, #185, .T. ) ;
#142 = CARTESIAN_POINT ( 'NONE',  ( 0.000000000000000000, 0.000000000000000000, 0.000000000000000000 ) ) ;
#143 = DIRECTION ( 'NONE',  ( -1.000000000000000000, 0.000000000000000000, 0.000000000000000000 ) ) ;
#144 = PERSON ( 'NEURÈENÝ', 'NEURÈENÝ', 'NEURÈENÝ', ('NEURÈENÝ'), ('NEURÈENÝ'), ('NEURÈENÝ') ) ;
#145 = ORIENTED_EDGE ( 'NONE', *, *, #160, .F. ) ;
#146 = EDGE_CURVE ( 'NONE', #34, #37, #62, .T. ) ;
#147 = DIRECTION ( 'NONE',  ( 0.000000000000000000, 0.000000000000000000, 1.000000000000000000 ) ) ;
#148 = APPROVAL_DATE_TIME ( #165, #131 ) ;
#149 = COORDINATED_UNIVERSAL_TIME_OFFSET ( 1, 0, .AHEAD. ) ;
#150 = AXIS2_PLACEMENT_3D ( 'NONE', #206, #147, #42 ) ;
#151 = LOCAL_TIME ( 13, 31, 27.00000000000000000, #78 ) ;
#152 = CARTESIAN_POINT ( 'NONE',  ( 0.000000000000000000, 0.000000000000000000, 0.000000000000000000 ) ) ;
#153 = MECHANICAL_CONTEXT ( 'NONE', #233, 'mechanical' ) ;
#154 = PLANE ( 'NONE',  #180 ) ;
#155 = VECTOR ( 'NONE', #118, 1000.000000000000000 ) ;
#156 =( NAMED_UNIT ( * ) SI_UNIT ( $, .STERADIAN. ) SOLID_ANGLE_UNIT ( ) );
#157 = CARTESIAN_POINT ( 'NONE',  ( -5.000000000000000000, 0.000000000000000000, 0.000000000000000000 ) ) ;
#158 = CC_DESIGN_PERSON_AND_ORGANIZATION_ASSIGNMENT ( #76, #92, ( #9 ) ) ;
#159 = DIRECTION ( 'NONE',  ( 0.000000000000000000, 0.000000000000000000, 1.000000000000000000 ) ) ;
#160 = EDGE_CURVE ( 'NONE', #171, #99, #222, .T. ) ;
#161 = COORDINATED_UNIVERSAL_TIME_OFFSET ( 1, 0, .AHEAD. ) ;
#162 = LINE ( 'NONE', #46, #67 ) ;
#163 = AXIS2_PLACEMENT_3D ( 'NONE', #129, #251, #127 ) ;
#164 = PERSON_AND_ORGANIZATION ( #144, #250 ) ;
#165 = DATE_AND_TIME ( #130, #201 ) ;
#166 = LOCAL_TIME ( 13, 31, 27.00000000000000000, #161 ) ;
#167 = PERSON_AND_ORGANIZATION ( #144, #250 ) ;
#168 = ADVANCED_FACE ( 'NONE', ( #36 ), #101, .F. ) ;
#169 = APPROVAL_ROLE ( '' ) ;
#170 = PERSON_AND_ORGANIZATION_ROLE ( 'design_supplier' ) ;
#171 = VERTEX_POINT ( 'NONE', #217 ) ;
#172 = DIRECTION ( 'NONE',  ( 1.000000000000000000, 0.000000000000000000, 0.000000000000000000 ) ) ;
#173 = APPLICATION_PROTOCOL_DEFINITION ( 'international standard', 'config_control_design', 1994, #233 ) ;
#174 = COORDINATED_UNIVERSAL_TIME_OFFSET ( 1, 0, .AHEAD. ) ;
#175 = ADVANCED_FACE ( 'NONE', ( #50, #116 ), #154, .T. ) ;
#176 = CARTESIAN_POINT ( 'NONE',  ( 0.000000000000000000, 0.000000000000000000, 125.0000000000000000 ) ) ;
#177 = CARTESIAN_POINT ( 'NONE',  ( -5.000000000000000000, 0.000000000000000000, 3.000000000000000000 ) ) ;
#178 = ORIENTED_EDGE ( 'NONE', *, *, #66, .T. ) ;
#179 = CARTESIAN_POINT ( 'NONE',  ( 5.000000000000000000, 6.123233995736766282E-16, 0.000000000000000000 ) ) ;
#180 = AXIS2_PLACEMENT_3D ( 'NONE', #245, #17, #74 ) ;
#181 = CARTESIAN_POINT ( 'NONE',  ( 0.000000000000000000, 0.000000000000000000, 125.0000000000000000 ) ) ;
#182 = AXIS2_PLACEMENT_3D ( 'NONE', #181, #59, #123 ) ;
#183 = CALENDAR_DATE ( 2023, 12, 2 ) ;
#184 = DIRECTION ( 'NONE',  ( 1.000000000000000000, 0.000000000000000000, 0.000000000000000000 ) ) ;
#185 = EDGE_CURVE ( 'NONE', #219, #7, #203, .T. ) ;
#186 = PERSON_AND_ORGANIZATION ( #144, #250 ) ;
#187 = APPROVAL ( #241, 'NEURÈENÝ' ) ;
#188 = AXIS2_PLACEMENT_3D ( 'NONE', #207, #11, #33 ) ;
#189 = CC_DESIGN_APPROVAL ( #187, ( #111 ) ) ;
#190 = EDGE_CURVE ( 'NONE', #246, #98, #208, .T. ) ;
#191 = AXIS2_PLACEMENT_3D ( 'NONE', #152, #240, #136 ) ;
#192 = ORIENTED_EDGE ( 'NONE', *, *, #90, .F. ) ;
#193 = ORIENTED_EDGE ( 'NONE', *, *, #47, .T. ) ;
#194 = CARTESIAN_POINT ( 'NONE',  ( 0.000000000000000000, 0.000000000000000000, 0.000000000000000000 ) ) ;
#195 = LINE ( 'NONE', #35, #1 ) ;
#196 = CLOSED_SHELL ( 'NONE', ( #212, #235, #23, #175, #168, #103, #120 ) ) ;
#197 = CARTESIAN_POINT ( 'NONE',  ( 0.000000000000000000, 0.000000000000000000, 125.0000000000000000 ) ) ;
#198 = ORIENTED_EDGE ( 'NONE', *, *, #247, .T. ) ;
#199 = PRODUCT_DEFINITION_SHAPE ( 'NONE', 'NONE',  #55 ) ;
#200 = CIRCLE ( 'NONE', #234, 5.000000000000000000 ) ;
#201 = LOCAL_TIME ( 13, 31, 27.00000000000000000, #255 ) ;
#202 = AXIS2_PLACEMENT_3D ( 'NONE', #225, #227, #57 ) ;
#203 = CIRCLE ( 'NONE', #75, 5.000000000000000000 ) ;
#204 = APPROVAL_PERSON_ORGANIZATION ( #94, #210, #169 ) ;
#205 = FACE_OUTER_BOUND ( 'NONE', #54, .T. ) ;
#206 = CARTESIAN_POINT ( 'NONE',  ( 0.000000000000000000, 0.000000000000000000, 125.0000000000000000 ) ) ;
#207 = CARTESIAN_POINT ( 'NONE',  ( 0.000000000000000000, 0.000000000000000000, 125.0000000000000000 ) ) ;
#208 = CIRCLE ( 'NONE', #202, 5.000000000000000000 ) ;
#209 = CARTESIAN_POINT ( 'NONE',  ( 0.000000000000000000, 0.000000000000000000, 0.000000000000000000 ) ) ;
#210 = APPROVAL ( #237, 'NEURÈENÝ' ) ;
#211 = AXIS2_PLACEMENT_3D ( 'NONE', #194, #102, #223 ) ;
#212 = ADVANCED_FACE ( 'NONE', ( #40 ), #108, .T. ) ;
#213 = ADVANCED_BREP_SHAPE_REPRESENTATION ( '2bc9', ( #107, #211 ), #126 ) ;
#214 = EDGE_LOOP ( 'NONE', ( #244, #178 ) ) ;
#215 = APPROVAL_DATE_TIME ( #134, #210 ) ;
#216 = ORIENTED_EDGE ( 'NONE', *, *, #160, .T. ) ;
#217 = CARTESIAN_POINT ( 'NONE',  ( -2.500000000000000000, 0.000000000000000000, 125.0000000000000000 ) ) ;
#218 = PERSON_AND_ORGANIZATION ( #144, #250 ) ;
#219 = VERTEX_POINT ( 'NONE', #179 ) ;
#220 = PLANE ( 'NONE',  #19 ) ;
#221 = ORIENTED_EDGE ( 'NONE', *, *, #66, .F. ) ;
#222 = CIRCLE ( 'NONE', #109, 2.500000000000000000 ) ;
#223 = DIRECTION ( 'NONE',  ( 1.000000000000000000, 0.000000000000000000, 0.000000000000000000 ) ) ;
#224 = PERSON_AND_ORGANIZATION_ROLE ( 'design_owner' ) ;
#225 = CARTESIAN_POINT ( 'NONE',  ( 0.000000000000000000, 0.000000000000000000, 3.000000000000000000 ) ) ;
#226 = DATE_AND_TIME ( #183, #166 ) ;
#227 = DIRECTION ( 'NONE',  ( 0.000000000000000000, 0.000000000000000000, 1.000000000000000000 ) ) ;
#228 = UNCERTAINTY_MEASURE_WITH_UNIT (LENGTH_MEASURE( 1.000000000000000082E-05 ), #243, 'distance_accuracy_value', 'NONE');
#229 = CARTESIAN_POINT ( 'NONE',  ( 5.000000000000000000, 6.123233995736766282E-16, 3.000000000000000000 ) ) ;
#230 = CALENDAR_DATE ( 2023, 12, 2 ) ;
#231 = DESIGN_CONTEXT ( 'detailed design', #12, 'design' ) ;
#232 = FACE_OUTER_BOUND ( 'NONE', #16, .T. ) ;
#233 = APPLICATION_CONTEXT ( 'configuration controlled 3d designs of mechanical parts and assemblies' ) ;
#234 = AXIS2_PLACEMENT_3D ( 'NONE', #79, #159, #110 ) ;
#235 = ADVANCED_FACE ( 'NONE', ( #20 ), #88, .T. ) ;
#236 = EDGE_LOOP ( 'NONE', ( #192, #18 ) ) ;
#237 = APPROVAL_STATUS ( 'not_yet_approved' ) ;
#238 = APPROVAL_PERSON_ORGANIZATION ( #167, #187, #5 ) ;
#239 = VECTOR ( 'NONE', #253, 1000.000000000000000 ) ;
#240 = DIRECTION ( 'NONE',  ( 0.000000000000000000, 0.000000000000000000, 1.000000000000000000 ) ) ;
#241 = APPROVAL_STATUS ( 'not_yet_approved' ) ;
#242 = CARTESIAN_POINT ( 'NONE',  ( 0.000000000000000000, 0.000000000000000000, 3.000000000000000000 ) ) ;
#243 =( LENGTH_UNIT ( ) NAMED_UNIT ( * ) SI_UNIT ( .MILLI., .METRE. ) );
#244 = ORIENTED_EDGE ( 'NONE', *, *, #190, .T. ) ;
#245 = CARTESIAN_POINT ( 'NONE',  ( 0.000000000000000000, 0.000000000000000000, 3.000000000000000000 ) ) ;
#246 = VERTEX_POINT ( 'NONE', #177 ) ;
#247 = EDGE_CURVE ( 'NONE', #99, #34, #195, .T. ) ;
#248 = AXIS2_PLACEMENT_3D ( 'NONE', #209, #24, #184 ) ;
#249 = CIRCLE ( 'NONE', #248, 5.000000000000000000 ) ;
#250 = ORGANIZATION ( 'NEURÈENÝ', 'NEURÈENÝ', '' ) ;
#251 = DIRECTION ( 'NONE',  ( -0.000000000000000000, -0.000000000000000000, -1.000000000000000000 ) ) ;
#252 = APPROVAL_ROLE ( '' ) ;
#253 = DIRECTION ( 'NONE',  ( -0.000000000000000000, -0.000000000000000000, -1.000000000000000000 ) ) ;
#254 = DATE_AND_TIME ( #230, #151 ) ;
#255 = COORDINATED_UNIVERSAL_TIME_OFFSET ( 1, 0, .AHEAD. ) ;
ENDSEC;
END-ISO-10303-21;
