ISO-10303-21;
HEADER;
FILE_DESCRIPTION (( 'STEP AP203' ),
    '1' );
FILE_NAME ('818a.STEP',
    '2022-07-07T09:57:43',
    ( '' ),
    ( '' ),
    'SwSTEP 2.0',
    'SolidWorks 2019',
    '' );
FILE_SCHEMA (( 'CONFIG_CONTROL_DESIGN' ));
ENDSEC;

DATA;
#1 = LOCAL_TIME ( 11, 57, 43.00000000000000000, #151 ) ;
#2 = FACE_OUTER_BOUND ( 'NONE', #229, .T. ) ;
#3 = CARTESIAN_POINT ( 'NONE',  ( 0.000000000000000000, 0.000000000000000000, 5.199999999999982414 ) ) ;
#4 = DIRECTION ( 'NONE',  ( 0.000000000000000000, 0.000000000000000000, 1.000000000000000000 ) ) ;
#5 = FACE_OUTER_BOUND ( 'NONE', #37, .T. ) ;
#6 = DIRECTION ( 'NONE',  ( 1.000000000000000000, 0.000000000000000000, 0.000000000000000000 ) ) ;
#7 = APPROVAL_PERSON_ORGANIZATION ( #222, #102, #199 ) ;
#8 = CARTESIAN_POINT ( 'NONE',  ( -7.000000000000000000, 0.000000000000000000, 5.000000000000000000 ) ) ;
#9 = CARTESIAN_POINT ( 'NONE',  ( -4.250000000000000000, 0.000000000000000000, 5.199999999999982414 ) ) ;
#10 = DATE_AND_TIME ( #271, #59 ) ;
#11 = DATE_AND_TIME ( #292, #83 ) ;
#12 = APPROVAL_STATUS ( 'not_yet_approved' ) ;
#13 = EDGE_CURVE ( 'NONE', #181, #306, #39, .T. ) ;
#14 = COORDINATED_UNIVERSAL_TIME_OFFSET ( 1, 0, .AHEAD. ) ;
#15 = ORIENTED_EDGE ( 'NONE', *, *, #255, .F. ) ;
#16 = PRODUCT ( '818a', '818a', '', ( #261 ) ) ;
#17 = ORIENTED_EDGE ( 'NONE', *, *, #283, .T. ) ;
#18 = DIRECTION ( 'NONE',  ( 1.000000000000000000, 0.000000000000000000, 0.000000000000000000 ) ) ;
#19 = EDGE_CURVE ( 'NONE', #306, #181, #175, .T. ) ;
#20 = DIRECTION ( 'NONE',  ( 0.000000000000000000, 0.000000000000000000, 1.000000000000000000 ) ) ;
#21 = ORIENTED_EDGE ( 'NONE', *, *, #47, .T. ) ;
#22 = DIRECTION ( 'NONE',  ( 1.000000000000000000, 0.000000000000000000, 0.000000000000000000 ) ) ;
#23 = DIRECTION ( 'NONE',  ( 1.000000000000000000, 0.000000000000000000, 0.000000000000000000 ) ) ;
#24 = CARTESIAN_POINT ( 'NONE',  ( 0.000000000000000000, 0.000000000000000000, 5.000000000000000000 ) ) ;
#25 = CC_DESIGN_PERSON_AND_ORGANIZATION_ASSIGNMENT ( #84, #150, ( #153 ) ) ;
#26 = CARTESIAN_POINT ( 'NONE',  ( 0.000000000000000000, 0.000000000000000000, 1004.999999999999886 ) ) ;
#27 = DIRECTION ( 'NONE',  ( 1.000000000000000000, 0.000000000000000000, -0.000000000000000000 ) ) ;
#28 = DIRECTION ( 'NONE',  ( 1.000000000000000000, 0.000000000000000000, 0.000000000000000000 ) ) ;
#29 = PRODUCT_RELATED_PRODUCT_CATEGORY ( 'detail', '', ( #16 ) ) ;
#30 = VECTOR ( 'NONE', #93, 1000.000000000000000 ) ;
#31 = FACE_OUTER_BOUND ( 'NONE', #45, .T. ) ;
#32 = APPLICATION_PROTOCOL_DEFINITION ( 'international standard', 'config_control_design', 1994, #52 ) ;
#33 = PERSON_AND_ORGANIZATION ( #242, #297 ) ;
#34 = CIRCLE ( 'NONE', #75, 4.250000000000000000 ) ;
#35 = EDGE_CURVE ( 'NONE', #254, #302, #202, .T. ) ;
#36 = AXIS2_PLACEMENT_3D ( 'NONE', #101, #76, #27 ) ;
#37 = EDGE_LOOP ( 'NONE', ( #200, #304, #303, #251 ) ) ;
#38 = CC_DESIGN_APPROVAL ( #273, ( #153 ) ) ;
#39 = CIRCLE ( 'NONE', #291, 7.000000000000000000 ) ;
#40 = ORIENTED_EDGE ( 'NONE', *, *, #13, .T. ) ;
#41 = EDGE_LOOP ( 'NONE', ( #253, #183, #277, #15 ) ) ;
#42 = VERTEX_POINT ( 'NONE', #44 ) ;
#43 = CC_DESIGN_PERSON_AND_ORGANIZATION_ASSIGNMENT ( #128, #269, ( #196 ) ) ;
#44 = CARTESIAN_POINT ( 'NONE',  ( 4.450000000000000178, 0.000000000000000000, 4.999999999999991118 ) ) ;
#45 = EDGE_LOOP ( 'NONE', ( #135, #40 ) ) ;
#46 = DIRECTION ( 'NONE',  ( 1.000000000000000000, 0.000000000000000000, 0.000000000000000000 ) ) ;
#47 = EDGE_CURVE ( 'NONE', #95, #205, #274, .T. ) ;
#48 = CARTESIAN_POINT ( 'NONE',  ( 0.000000000000000000, 0.000000000000000000, 0.000000000000000000 ) ) ;
#49 = AXIS2_PLACEMENT_3D ( 'NONE', #168, #53, #22 ) ;
#50 = FACE_OUTER_BOUND ( 'NONE', #41, .T. ) ;
#51 = FACE_OUTER_BOUND ( 'NONE', #252, .T. ) ;
#52 = APPLICATION_CONTEXT ( 'configuration controlled 3d designs of mechanical parts and assemblies' ) ;
#53 = DIRECTION ( 'NONE',  ( 0.000000000000000000, 0.000000000000000000, 1.000000000000000000 ) ) ;
#54 = DIRECTION ( 'NONE',  ( 0.000000000000000000, 0.000000000000000000, 1.000000000000000000 ) ) ;
#55 = DIRECTION ( 'NONE',  ( 1.000000000000000000, 0.000000000000000000, 0.000000000000000000 ) ) ;
#56 = CC_DESIGN_PERSON_AND_ORGANIZATION_ASSIGNMENT ( #33, #63, ( #112 ) ) ;
#57 = FACE_BOUND ( 'NONE', #69, .T. ) ;
#58 = UNCERTAINTY_MEASURE_WITH_UNIT (LENGTH_MEASURE( 1.000000000000000082E-05 ), #97, 'distance_accuracy_value', 'NONE');
#59 = LOCAL_TIME ( 11, 57, 43.00000000000000000, #129 ) ;
#60 = CALENDAR_DATE ( 2022, 7, 7 ) ;
#61 = SHAPE_DEFINITION_REPRESENTATION ( #225, #64 ) ;
#62 = CIRCLE ( 'NONE', #228, 4.450000000000000178 ) ;
#63 = PERSON_AND_ORGANIZATION_ROLE ( 'design_supplier' ) ;
#64 = ADVANCED_BREP_SHAPE_REPRESENTATION ( '818a', ( #307, #49 ), #146 ) ;
#65 = ORIENTED_EDGE ( 'NONE', *, *, #203, .T. ) ;
#66 = AXIS2_PLACEMENT_3D ( 'NONE', #164, #286, #281 ) ;
#67 = DIRECTION ( 'NONE',  ( -0.000000000000000000, -0.000000000000000000, -1.000000000000000000 ) ) ;
#68 = EDGE_CURVE ( 'NONE', #205, #302, #209, .T. ) ;
#69 = EDGE_LOOP ( 'NONE', ( #65, #279 ) ) ;
#70 = CARTESIAN_POINT ( 'NONE',  ( 4.250000000000000000, 5.204748896376250699E-16, 1004.999999999999886 ) ) ;
#71 = ORIENTED_EDGE ( 'NONE', *, *, #201, .F. ) ;
#72 = CIRCLE ( 'NONE', #268, 7.000000000000000000 ) ;
#73 = DIRECTION ( 'NONE',  ( 0.000000000000000000, 0.000000000000000000, 1.000000000000000000 ) ) ;
#74 = DIRECTION ( 'NONE',  ( 1.000000000000000000, 0.000000000000000000, -0.000000000000000000 ) ) ;
#75 = AXIS2_PLACEMENT_3D ( 'NONE', #26, #123, #6 ) ;
#76 = DIRECTION ( 'NONE',  ( 0.000000000000000000, 0.000000000000000000, 1.000000000000000000 ) ) ;
#77 = DIRECTION ( 'NONE',  ( 1.000000000000000000, 0.000000000000000000, 0.000000000000000000 ) ) ;
#78 = TOROIDAL_SURFACE ( 'NONE', #172, 4.450000000000000178, 0.2000000000000000111 ) ;
#79 = LINE ( 'NONE', #8, #163 ) ;
#80 = DIRECTION ( 'NONE',  ( -1.000000000000000000, 0.000000000000000000, 0.000000000000000000 ) ) ;
#81 = CARTESIAN_POINT ( 'NONE',  ( 7.000000000000000000, 8.572527594031473190E-16, 5.000000000000000000 ) ) ;
#82 = CYLINDRICAL_SURFACE ( 'NONE', #66, 4.250000000000000000 ) ;
#83 = LOCAL_TIME ( 11, 57, 43.00000000000000000, #241 ) ;
#84 = PERSON_AND_ORGANIZATION ( #242, #297 ) ;
#85 = SECURITY_CLASSIFICATION_LEVEL ( 'unclassified' ) ;
#86 = ADVANCED_FACE ( 'NONE', ( #167 ), #240, .T. ) ;
#87 = APPROVAL_DATE_TIME ( #293, #193 ) ;
#88 = APPROVAL_STATUS ( 'not_yet_approved' ) ;
#89 = CC_DESIGN_APPROVAL ( #102, ( #112 ) ) ;
#90 = ORIENTED_EDGE ( 'NONE', *, *, #149, .F. ) ;
#91 = CLOSED_SHELL ( 'NONE', ( #294, #140, #227, #86, #122, #214, #108, #260, #305 ) ) ;
#92 = EDGE_CURVE ( 'NONE', #115, #42, #249, .T. ) ;
#93 = DIRECTION ( 'NONE',  ( -0.000000000000000000, -0.000000000000000000, -1.000000000000000000 ) ) ;
#94 = AXIS2_PLACEMENT_3D ( 'NONE', #191, #170, #80 ) ;
#95 = VERTEX_POINT ( 'NONE', #215 ) ;
#96 = ORIENTED_EDGE ( 'NONE', *, *, #224, .T. ) ;
#97 =( LENGTH_UNIT ( ) NAMED_UNIT ( * ) SI_UNIT ( .MILLI., .METRE. ) );
#98 = DIRECTION ( 'NONE',  ( 0.000000000000000000, -1.000000000000000000, 0.000000000000000000 ) ) ;
#99 = CARTESIAN_POINT ( 'NONE',  ( 0.000000000000000000, 0.000000000000000000, 1004.999999999999886 ) ) ;
#100 = AXIS2_PLACEMENT_3D ( 'NONE', #194, #289, #74 ) ;
#101 = CARTESIAN_POINT ( 'NONE',  ( 0.000000000000000000, 0.000000000000000000, 1004.999999999999886 ) ) ;
#102 = APPROVAL ( #88, 'NEURÈENÝ' ) ;
#103 = DIRECTION ( 'NONE',  ( 1.000000000000000000, 0.000000000000000000, 0.000000000000000000 ) ) ;
#104 = DIRECTION ( 'NONE',  ( -0.000000000000000000, -0.000000000000000000, -1.000000000000000000 ) ) ;
#105 = PLANE ( 'NONE',  #100 ) ;
#106 = PERSON_AND_ORGANIZATION_ROLE ( 'design_owner' ) ;
#107 = PERSON_AND_ORGANIZATION ( #242, #297 ) ;
#108 = ADVANCED_FACE ( 'NONE', ( #190 ), #82, .T. ) ;
#109 = APPROVAL_STATUS ( 'not_yet_approved' ) ;
#110 = ORIENTED_EDGE ( 'NONE', *, *, #224, .F. ) ;
#111 = CC_DESIGN_PERSON_AND_ORGANIZATION_ASSIGNMENT ( #218, #195, ( #112 ) ) ;
#112 = PRODUCT_DEFINITION_FORMATION_WITH_SPECIFIED_SOURCE ( 'LIBOVOLNÝ', '', #16, .NOT_KNOWN. ) ;
#113 = ORIENTED_EDGE ( 'NONE', *, *, #201, .T. ) ;
#114 = ORIENTED_EDGE ( 'NONE', *, *, #19, .F. ) ;
#115 = VERTEX_POINT ( 'NONE', #284 ) ;
#116 = ORIENTED_EDGE ( 'NONE', *, *, #149, .T. ) ;
#117 = EDGE_LOOP ( 'NONE', ( #182, #114, #116, #130 ) ) ;
#118 = PLANE ( 'NONE',  #36 ) ;
#119 = CC_DESIGN_SECURITY_CLASSIFICATION ( #196, ( #112 ) ) ;
#120 = AXIS2_PLACEMENT_3D ( 'NONE', #236, #189, #125 ) ;
#121 = DIRECTION ( 'NONE',  ( -0.000000000000000000, -0.000000000000000000, -1.000000000000000000 ) ) ;
#122 = ADVANCED_FACE ( 'NONE', ( #57, #31 ), #144, .T. ) ;
#123 = DIRECTION ( 'NONE',  ( 0.000000000000000000, 0.000000000000000000, 1.000000000000000000 ) ) ;
#124 = TOROIDAL_SURFACE ( 'NONE', #248, 4.450000000000000178, 0.2000000000000000111 ) ;
#125 = DIRECTION ( 'NONE',  ( -1.000000000000000000, 0.000000000000000000, 0.000000000000000000 ) ) ;
#126 = CARTESIAN_POINT ( 'NONE',  ( 0.000000000000000000, 0.000000000000000000, 5.000000000000000000 ) ) ;
#127 = APPROVAL_DATE_TIME ( #174, #273 ) ;
#128 = PERSON_AND_ORGANIZATION ( #242, #297 ) ;
#129 = COORDINATED_UNIVERSAL_TIME_OFFSET ( 1, 0, .AHEAD. ) ;
#130 = ORIENTED_EDGE ( 'NONE', *, *, #233, .T. ) ;
#131 = APPROVAL_PERSON_ORGANIZATION ( #107, #193, #245 ) ;
#132 = EDGE_CURVE ( 'NONE', #205, #115, #235, .T. ) ;
#133 = DIRECTION ( 'NONE',  ( 0.000000000000000000, 0.000000000000000000, 1.000000000000000000 ) ) ;
#134 = EDGE_LOOP ( 'NONE', ( #247, #178, #96, #90 ) ) ;
#135 = ORIENTED_EDGE ( 'NONE', *, *, #19, .T. ) ;
#136 = CC_DESIGN_DATE_AND_TIME_ASSIGNMENT ( #197, #220, ( #153 ) ) ;
#137 = ORIENTED_EDGE ( 'NONE', *, *, #160, .F. ) ;
#138 = CARTESIAN_POINT ( 'NONE',  ( -7.000000000000000000, 0.000000000000000000, 5.000000000000000000 ) ) ;
#139 = CARTESIAN_POINT ( 'NONE',  ( -4.450000000000000178, 5.449678256205721784E-16, 5.199999999999982414 ) ) ;
#140 = ADVANCED_FACE ( 'NONE', ( #51 ), #142, .T. ) ;
#141 = FACE_OUTER_BOUND ( 'NONE', #134, .T. ) ;
#142 = CYLINDRICAL_SURFACE ( 'NONE', #300, 4.250000000000000000 ) ;
#143 = DIRECTION ( 'NONE',  ( 1.000000000000000000, 0.000000000000000000, 0.000000000000000000 ) ) ;
#144 = PLANE ( 'NONE',  #198 ) ;
#145 =( NAMED_UNIT ( * ) SI_UNIT ( $, .STERADIAN. ) SOLID_ANGLE_UNIT ( ) );
#146 =( GEOMETRIC_REPRESENTATION_CONTEXT ( 3 ) GLOBAL_UNCERTAINTY_ASSIGNED_CONTEXT ( ( #58 ) ) GLOBAL_UNIT_ASSIGNED_CONTEXT ( ( #97, #213, #145 ) ) REPRESENTATION_CONTEXT ( 'NONE', 'WORKASPACE' ) );
#147 = DIRECTION ( 'NONE',  ( 0.000000000000000000, 0.000000000000000000, 1.000000000000000000 ) ) ;
#148 = APPROVAL_DATE_TIME ( #11, #102 ) ;
#149 = EDGE_CURVE ( 'NONE', #306, #180, #79, .T. ) ;
#150 = PERSON_AND_ORGANIZATION_ROLE ( 'creator' ) ;
#151 = COORDINATED_UNIVERSAL_TIME_OFFSET ( 1, 0, .AHEAD. ) ;
#152 = CIRCLE ( 'NONE', #188, 4.250000000000000000 ) ;
#153 = PRODUCT_DEFINITION ( 'NEZNÁMÝ', '', #112, #237 ) ;
#154 = CIRCLE ( 'NONE', #299, 0.1999999999999996503 ) ;
#155 = VERTEX_POINT ( 'NONE', #288 ) ;
#156 = AXIS2_PLACEMENT_3D ( 'NONE', #126, #259, #103 ) ;
#157 = CARTESIAN_POINT ( 'NONE',  ( 0.000000000000000000, 0.000000000000000000, 5.199999999999982414 ) ) ;
#158 = CARTESIAN_POINT ( 'NONE',  ( -4.250000000000000000, 0.000000000000000000, 1004.999999999999886 ) ) ;
#159 = ORIENTED_EDGE ( 'NONE', *, *, #233, .F. ) ;
#160 = EDGE_CURVE ( 'NONE', #95, #254, #34, .T. ) ;
#161 = LOCAL_TIME ( 11, 57, 43.00000000000000000, #176 ) ;
#162 = EDGE_LOOP ( 'NONE', ( #159, #110 ) ) ;
#163 = VECTOR ( 'NONE', #211, 1000.000000000000000 ) ;
#164 = CARTESIAN_POINT ( 'NONE',  ( 0.000000000000000000, 0.000000000000000000, 1004.999999999999886 ) ) ;
#165 = DIRECTION ( 'NONE',  ( 0.000000000000000000, 0.000000000000000000, 1.000000000000000000 ) ) ;
#166 = EDGE_CURVE ( 'NONE', #181, #155, #169, .T. ) ;
#167 = FACE_OUTER_BOUND ( 'NONE', #117, .T. ) ;
#168 = CARTESIAN_POINT ( 'NONE',  ( 0.000000000000000000, 0.000000000000000000, 0.000000000000000000 ) ) ;
#169 = LINE ( 'NONE', #81, #244 ) ;
#170 = DIRECTION ( 'NONE',  ( -0.000000000000000000, -0.000000000000000000, -1.000000000000000000 ) ) ;
#171 = DIRECTION ( 'NONE',  ( -0.000000000000000000, -0.000000000000000000, -1.000000000000000000 ) ) ;
#172 = AXIS2_PLACEMENT_3D ( 'NONE', #3, #165, #23 ) ;
#173 = CARTESIAN_POINT ( 'NONE',  ( 0.000000000000000000, 0.000000000000000000, 1004.999999999999886 ) ) ;
#174 = DATE_AND_TIME ( #295, #1 ) ;
#175 = CIRCLE ( 'NONE', #298, 7.000000000000000000 ) ;
#176 = COORDINATED_UNIVERSAL_TIME_OFFSET ( 1, 0, .AHEAD. ) ;
#177 = CALENDAR_DATE ( 2022, 7, 7 ) ;
#178 = ORIENTED_EDGE ( 'NONE', *, *, #166, .T. ) ;
#179 = CARTESIAN_POINT ( 'NONE',  ( 0.000000000000000000, 0.000000000000000000, 5.000000000000000000 ) ) ;
#180 = VERTEX_POINT ( 'NONE', #262 ) ;
#181 = VERTEX_POINT ( 'NONE', #239 ) ;
#182 = ORIENTED_EDGE ( 'NONE', *, *, #166, .F. ) ;
#183 = ORIENTED_EDGE ( 'NONE', *, *, #132, .T. ) ;
#184 = CC_DESIGN_APPROVAL ( #193, ( #196 ) ) ;
#185 = AXIS2_PLACEMENT_3D ( 'NONE', #139, #234, #212 ) ;
#186 = APPLICATION_PROTOCOL_DEFINITION ( 'international standard', 'config_control_design', 1994, #257 ) ;
#187 = CARTESIAN_POINT ( 'NONE',  ( 4.450000000000000178, 0.000000000000000000, 5.199999999999982414 ) ) ;
#188 = AXIS2_PLACEMENT_3D ( 'NONE', #99, #54, #28 ) ;
#189 = DIRECTION ( 'NONE',  ( -0.000000000000000000, -0.000000000000000000, -1.000000000000000000 ) ) ;
#190 = FACE_OUTER_BOUND ( 'NONE', #296, .T. ) ;
#191 = CARTESIAN_POINT ( 'NONE',  ( 0.000000000000000000, 0.000000000000000000, 5.000000000000000000 ) ) ;
#192 = CARTESIAN_POINT ( 'NONE',  ( 0.000000000000000000, 0.000000000000000000, 5.000000000000000000 ) ) ;
#193 = APPROVAL ( #12, 'NEURÈENÝ' ) ;
#194 = CARTESIAN_POINT ( 'NONE',  ( 0.000000000000000000, 0.000000000000000000, 0.000000000000000000 ) ) ;
#195 = PERSON_AND_ORGANIZATION_ROLE ( 'creator' ) ;
#196 = SECURITY_CLASSIFICATION ( '', '', #85 ) ;
#197 = DATE_AND_TIME ( #60, #265 ) ;
#198 = AXIS2_PLACEMENT_3D ( 'NONE', #24, #147, #217 ) ;
#199 = APPROVAL_ROLE ( '' ) ;
#200 = ORIENTED_EDGE ( 'NONE', *, *, #132, .F. ) ;
#201 = EDGE_CURVE ( 'NONE', #254, #95, #152, .T. ) ;
#202 = LINE ( 'NONE', #70, #30 ) ;
#203 = EDGE_CURVE ( 'NONE', #42, #115, #62, .T. ) ;
#204 = DIRECTION ( 'NONE',  ( 0.000000000000000000, 0.000000000000000000, 1.000000000000000000 ) ) ;
#205 = VERTEX_POINT ( 'NONE', #9 ) ;
#206 = CIRCLE ( 'NONE', #270, 7.000000000000000000 ) ;
#207 = CARTESIAN_POINT ( 'NONE',  ( 4.250000000000000000, 5.204748896376250699E-16, 5.199999999999982414 ) ) ;
#208 = APPROVAL_PERSON_ORGANIZATION ( #219, #273, #243 ) ;
#209 = CIRCLE ( 'NONE', #221, 4.250000000000000000 ) ;
#210 = CARTESIAN_POINT ( 'NONE',  ( 0.000000000000000000, 0.000000000000000000, 5.199999999999982414 ) ) ;
#211 = DIRECTION ( 'NONE',  ( -0.000000000000000000, -0.000000000000000000, -1.000000000000000000 ) ) ;
#212 = DIRECTION ( 'NONE',  ( -1.000000000000000000, 1.224646799147353454E-16, 0.000000000000000000 ) ) ;
#213 =( NAMED_UNIT ( * ) PLANE_ANGLE_UNIT ( ) SI_UNIT ( $, .RADIAN. ) );
#214 = ADVANCED_FACE ( 'NONE', ( #264 ), #105, .F. ) ;
#215 = CARTESIAN_POINT ( 'NONE',  ( -4.250000000000000000, 0.000000000000000000, 1004.999999999999886 ) ) ;
#216 = CYLINDRICAL_SURFACE ( 'NONE', #94, 7.000000000000000000 ) ;
#217 = DIRECTION ( 'NONE',  ( 1.000000000000000000, 0.000000000000000000, -0.000000000000000000 ) ) ;
#218 = PERSON_AND_ORGANIZATION ( #242, #297 ) ;
#219 = PERSON_AND_ORGANIZATION ( #242, #297 ) ;
#220 = DATE_TIME_ROLE ( 'creation_date' ) ;
#221 = AXIS2_PLACEMENT_3D ( 'NONE', #157, #133, #77 ) ;
#222 = PERSON_AND_ORGANIZATION ( #242, #297 ) ;
#223 = DIRECTION ( 'NONE',  ( 1.000000000000000000, 0.000000000000000000, 0.000000000000000000 ) ) ;
#224 = EDGE_CURVE ( 'NONE', #155, #180, #206, .T. ) ;
#225 = PRODUCT_DEFINITION_SHAPE ( 'NONE', 'NONE',  #153 ) ;
#226 = ORIENTED_EDGE ( 'NONE', *, *, #160, .T. ) ;
#227 = ADVANCED_FACE ( 'NONE', ( #141 ), #216, .T. ) ;
#228 = AXIS2_PLACEMENT_3D ( 'NONE', #192, #171, #258 ) ;
#229 = EDGE_LOOP ( 'NONE', ( #226, #113 ) ) ;
#230 = ORIENTED_EDGE ( 'NONE', *, *, #35, .F. ) ;
#231 = CARTESIAN_POINT ( 'NONE',  ( 0.000000000000000000, 0.000000000000000000, 5.000000000000000000 ) ) ;
#232 = ORIENTED_EDGE ( 'NONE', *, *, #47, .F. ) ;
#233 = EDGE_CURVE ( 'NONE', #180, #155, #72, .T. ) ;
#234 = DIRECTION ( 'NONE',  ( 1.224646799147353207E-16, 1.000000000000000000, -0.000000000000000000 ) ) ;
#235 = CIRCLE ( 'NONE', #185, 0.1999999999999996503 ) ;
#236 = CARTESIAN_POINT ( 'NONE',  ( 0.000000000000000000, 0.000000000000000000, 5.000000000000000000 ) ) ;
#237 = DESIGN_CONTEXT ( 'detailed design', #52, 'design' ) ;
#238 = CARTESIAN_POINT ( 'NONE',  ( 4.250000000000000000, 5.204748896376250699E-16, 1004.999999999999886 ) ) ;
#239 = CARTESIAN_POINT ( 'NONE',  ( 7.000000000000000000, 8.572527594031473190E-16, 5.000000000000000000 ) ) ;
#240 = CYLINDRICAL_SURFACE ( 'NONE', #120, 7.000000000000000000 ) ;
#241 = COORDINATED_UNIVERSAL_TIME_OFFSET ( 1, 0, .AHEAD. ) ;
#242 = PERSON ( 'NEURÈENÝ', 'NEURÈENÝ', 'NEURÈENÝ', ('NEURÈENÝ'), ('NEURÈENÝ'), ('NEURÈENÝ') ) ;
#243 = APPROVAL_ROLE ( '' ) ;
#244 = VECTOR ( 'NONE', #104, 1000.000000000000000 ) ;
#245 = APPROVAL_ROLE ( '' ) ;
#246 = CC_DESIGN_DATE_AND_TIME_ASSIGNMENT ( #10, #290, ( #196 ) ) ;
#247 = ORIENTED_EDGE ( 'NONE', *, *, #13, .F. ) ;
#248 = AXIS2_PLACEMENT_3D ( 'NONE', #285, #73, #46 ) ;
#249 = CIRCLE ( 'NONE', #156, 4.450000000000000178 ) ;
#250 = ORIENTED_EDGE ( 'NONE', *, *, #68, .T. ) ;
#251 = ORIENTED_EDGE ( 'NONE', *, *, #92, .F. ) ;
#252 = EDGE_LOOP ( 'NONE', ( #71, #276, #17, #232 ) ) ;
#253 = ORIENTED_EDGE ( 'NONE', *, *, #68, .F. ) ;
#254 = VERTEX_POINT ( 'NONE', #238 ) ;
#255 = EDGE_CURVE ( 'NONE', #302, #42, #154, .T. ) ;
#256 = DIRECTION ( 'NONE',  ( 0.000000000000000000, 0.000000000000000000, 1.000000000000000000 ) ) ;
#257 = APPLICATION_CONTEXT ( 'configuration controlled 3d designs of mechanical parts and assemblies' ) ;
#258 = DIRECTION ( 'NONE',  ( 1.000000000000000000, 0.000000000000000000, 0.000000000000000000 ) ) ;
#259 = DIRECTION ( 'NONE',  ( -0.000000000000000000, -0.000000000000000000, -1.000000000000000000 ) ) ;
#260 = ADVANCED_FACE ( 'NONE', ( #2 ), #118, .T. ) ;
#261 = MECHANICAL_CONTEXT ( 'NONE', #257, 'mechanical' ) ;
#262 = CARTESIAN_POINT ( 'NONE',  ( -7.000000000000000000, 0.000000000000000000, 0.000000000000000000 ) ) ;
#263 = CARTESIAN_POINT ( 'NONE',  ( 0.000000000000000000, 0.000000000000000000, 0.000000000000000000 ) ) ;
#264 = FACE_OUTER_BOUND ( 'NONE', #162, .T. ) ;
#265 = LOCAL_TIME ( 11, 57, 43.00000000000000000, #14 ) ;
#266 = DIRECTION ( 'NONE',  ( -1.000000000000000000, 0.000000000000000000, 0.000000000000000000 ) ) ;
#267 = PERSON_AND_ORGANIZATION ( #242, #297 ) ;
#268 = AXIS2_PLACEMENT_3D ( 'NONE', #263, #287, #143 ) ;
#269 = PERSON_AND_ORGANIZATION_ROLE ( 'classification_officer' ) ;
#270 = AXIS2_PLACEMENT_3D ( 'NONE', #48, #4, #280 ) ;
#271 = CALENDAR_DATE ( 2022, 7, 7 ) ;
#272 = CIRCLE ( 'NONE', #278, 4.250000000000000000 ) ;
#273 = APPROVAL ( #109, 'NEURÈENÝ' ) ;
#274 = LINE ( 'NONE', #158, #275 ) ;
#275 = VECTOR ( 'NONE', #67, 1000.000000000000000 ) ;
#276 = ORIENTED_EDGE ( 'NONE', *, *, #35, .T. ) ;
#277 = ORIENTED_EDGE ( 'NONE', *, *, #203, .F. ) ;
#278 = AXIS2_PLACEMENT_3D ( 'NONE', #210, #256, #55 ) ;
#279 = ORIENTED_EDGE ( 'NONE', *, *, #92, .T. ) ;
#280 = DIRECTION ( 'NONE',  ( 1.000000000000000000, 0.000000000000000000, 0.000000000000000000 ) ) ;
#281 = DIRECTION ( 'NONE',  ( -1.000000000000000000, 0.000000000000000000, 0.000000000000000000 ) ) ;
#282 = DIRECTION ( 'NONE',  ( 0.000000000000000000, 0.000000000000000000, -1.000000000000000000 ) ) ;
#283 = EDGE_CURVE ( 'NONE', #302, #205, #272, .T. ) ;
#284 = CARTESIAN_POINT ( 'NONE',  ( -4.450000000000000178, 5.449678256205721784E-16, 4.999999999999991118 ) ) ;
#285 = CARTESIAN_POINT ( 'NONE',  ( 0.000000000000000000, 0.000000000000000000, 5.199999999999982414 ) ) ;
#286 = DIRECTION ( 'NONE',  ( -0.000000000000000000, -0.000000000000000000, -1.000000000000000000 ) ) ;
#287 = DIRECTION ( 'NONE',  ( 0.000000000000000000, 0.000000000000000000, 1.000000000000000000 ) ) ;
#288 = CARTESIAN_POINT ( 'NONE',  ( 7.000000000000000000, 8.572527594031473190E-16, 0.000000000000000000 ) ) ;
#289 = DIRECTION ( 'NONE',  ( 0.000000000000000000, 0.000000000000000000, 1.000000000000000000 ) ) ;
#290 = DATE_TIME_ROLE ( 'classification_date' ) ;
#291 = AXIS2_PLACEMENT_3D ( 'NONE', #231, #20, #223 ) ;
#292 = CALENDAR_DATE ( 2022, 7, 7 ) ;
#293 = DATE_AND_TIME ( #177, #161 ) ;
#294 = ADVANCED_FACE ( 'NONE', ( #50 ), #124, .F. ) ;
#295 = CALENDAR_DATE ( 2022, 7, 7 ) ;
#296 = EDGE_LOOP ( 'NONE', ( #230, #137, #21, #250 ) ) ;
#297 = ORGANIZATION ( 'NEURÈENÝ', 'NEURÈENÝ', '' ) ;
#298 = AXIS2_PLACEMENT_3D ( 'NONE', #179, #204, #18 ) ;
#299 = AXIS2_PLACEMENT_3D ( 'NONE', #187, #98, #282 ) ;
#300 = AXIS2_PLACEMENT_3D ( 'NONE', #173, #121, #266 ) ;
#301 = CC_DESIGN_PERSON_AND_ORGANIZATION_ASSIGNMENT ( #267, #106, ( #16 ) ) ;
#302 = VERTEX_POINT ( 'NONE', #207 ) ;
#303 = ORIENTED_EDGE ( 'NONE', *, *, #255, .T. ) ;
#304 = ORIENTED_EDGE ( 'NONE', *, *, #283, .F. ) ;
#305 = ADVANCED_FACE ( 'NONE', ( #5 ), #78, .F. ) ;
#306 = VERTEX_POINT ( 'NONE', #138 ) ;
#307 = MANIFOLD_SOLID_BREP ( 'Zaoblit1', #91 ) ;
ENDSEC;
END-ISO-10303-21;
