ISO-10303-21;
HEADER;
FILE_DESCRIPTION (( 'STEP AP203' ),
    '1' );
FILE_NAME ('236b.STEP',
    '2022-07-07T10:38:00',
    ( '' ),
    ( '' ),
    'SwSTEP 2.0',
    'SolidWorks 2019',
    '' );
FILE_SCHEMA (( 'CONFIG_CONTROL_DESIGN' ));
ENDSEC;

DATA;
#1 = EDGE_CURVE ( 'NONE', #259, #162, #272, .T. ) ;
#2 = ORIENTED_EDGE ( 'NONE', *, *, #160, .F. ) ;
#3 = CIRCLE ( 'NONE', #243, 0.8499999999999999778 ) ;
#4 = AXIS2_PLACEMENT_3D ( 'NONE', #265, #50, #52 ) ;
#5 = EDGE_CURVE ( 'NONE', #99, #75, #258, .T. ) ;
#6 = DIRECTION ( 'NONE',  ( 1.000000000000000000, 0.000000000000000000, 0.000000000000000000 ) ) ;
#7 = CYLINDRICAL_SURFACE ( 'NONE', #97, 0.8499999999999999778 ) ;
#8 = ORIENTED_EDGE ( 'NONE', *, *, #239, .F. ) ;
#9 = APPROVAL_PERSON_ORGANIZATION ( #21, #307, #108 ) ;
#10 = CARTESIAN_POINT ( 'NONE',  ( 2.000000000000000000, 2.449293598294706414E-16, 1.500000000000000000 ) ) ;
#11 = EDGE_LOOP ( 'NONE', ( #305, #95, #241, #88 ) ) ;
#12 = DIRECTION ( 'NONE',  ( 1.000000000000000000, 0.000000000000000000, -0.000000000000000000 ) ) ;
#13 = FACE_OUTER_BOUND ( 'NONE', #280, .T. ) ;
#14 = CYLINDRICAL_SURFACE ( 'NONE', #22, 2.000000000000000000 ) ;
#15 = DIRECTION ( 'NONE',  ( 0.000000000000000000, 0.000000000000000000, 1.000000000000000000 ) ) ;
#16 = CARTESIAN_POINT ( 'NONE',  ( 0.8499999999999999778, 1.040949779275250140E-16, 1.700000000000007061 ) ) ;
#17 = PERSON_AND_ORGANIZATION ( #250, #115 ) ;
#18 = COORDINATED_UNIVERSAL_TIME_OFFSET ( 1, 0, .AHEAD. ) ;
#19 = CC_DESIGN_DATE_AND_TIME_ASSIGNMENT ( #178, #254, ( #222 ) ) ;
#20 = DIRECTION ( 'NONE',  ( 1.000000000000000000, 0.000000000000000000, 0.000000000000000000 ) ) ;
#21 = PERSON_AND_ORGANIZATION ( #250, #115 ) ;
#22 = AXIS2_PLACEMENT_3D ( 'NONE', #26, #78, #291 ) ;
#23 = ORIENTED_EDGE ( 'NONE', *, *, #5, .F. ) ;
#24 = ORIENTED_EDGE ( 'NONE', *, *, #5, .T. ) ;
#25 = DIRECTION ( 'NONE',  ( 1.000000000000000000, 0.000000000000000000, 0.000000000000000000 ) ) ;
#26 = CARTESIAN_POINT ( 'NONE',  ( 0.000000000000000000, 0.000000000000000000, 1.500000000000000000 ) ) ;
#27 = DIRECTION ( 'NONE',  ( -0.000000000000000000, -0.000000000000000000, -1.000000000000000000 ) ) ;
#28 = CIRCLE ( 'NONE', #62, 2.000000000000000000 ) ;
#29 = MANIFOLD_SOLID_BREP ( 'Zaoblit1', #297 ) ;
#30 = DIRECTION ( 'NONE',  ( 0.000000000000000000, 0.000000000000000000, 1.000000000000000000 ) ) ;
#31 = CARTESIAN_POINT ( 'NONE',  ( 0.000000000000000000, 0.000000000000000000, 1.500000000000000000 ) ) ;
#32 = DIRECTION ( 'NONE',  ( -1.000000000000000000, 0.000000000000000000, 0.000000000000000000 ) ) ;
#33 = FACE_OUTER_BOUND ( 'NONE', #66, .T. ) ;
#34 = DIRECTION ( 'NONE',  ( 1.000000000000000000, 0.000000000000000000, 0.000000000000000000 ) ) ;
#35 = DIRECTION ( 'NONE',  ( 1.000000000000000000, 0.000000000000000000, 0.000000000000000000 ) ) ;
#36 =( NAMED_UNIT ( * ) SI_UNIT ( $, .STERADIAN. ) SOLID_ANGLE_UNIT ( ) );
#37 = APPROVAL_STATUS ( 'not_yet_approved' ) ;
#38 = PERSON_AND_ORGANIZATION_ROLE ( 'creator' ) ;
#39 = COORDINATED_UNIVERSAL_TIME_OFFSET ( 1, 0, .AHEAD. ) ;
#40 = PERSON_AND_ORGANIZATION ( #250, #115 ) ;
#41 = ORIENTED_EDGE ( 'NONE', *, *, #276, .F. ) ;
#42 = AXIS2_PLACEMENT_3D ( 'NONE', #67, #266, #32 ) ;
#43 = VERTEX_POINT ( 'NONE', #238 ) ;
#44 = ORIENTED_EDGE ( 'NONE', *, *, #65, .T. ) ;
#45 = DIRECTION ( 'NONE',  ( 1.000000000000000000, 0.000000000000000000, 0.000000000000000000 ) ) ;
#46 = AXIS2_PLACEMENT_3D ( 'NONE', #169, #48, #126 ) ;
#47 = VERTEX_POINT ( 'NONE', #166 ) ;
#48 = DIRECTION ( 'NONE',  ( -0.000000000000000000, -0.000000000000000000, -1.000000000000000000 ) ) ;
#49 = ORIENTED_EDGE ( 'NONE', *, *, #239, .T. ) ;
#50 = DIRECTION ( 'NONE',  ( -0.000000000000000000, -0.000000000000000000, -1.000000000000000000 ) ) ;
#51 = CARTESIAN_POINT ( 'NONE',  ( 2.000000000000000000, 2.449293598294706414E-16, 0.000000000000000000 ) ) ;
#52 = DIRECTION ( 'NONE',  ( 1.000000000000000000, 0.000000000000000000, 0.000000000000000000 ) ) ;
#53 = CIRCLE ( 'NONE', #153, 0.8499999999999999778 ) ;
#54 = EDGE_LOOP ( 'NONE', ( #41, #269, #142, #186 ) ) ;
#55 = CARTESIAN_POINT ( 'NONE',  ( 0.000000000000000000, 0.000000000000000000, 1.700000000000007061 ) ) ;
#56 = DATE_AND_TIME ( #82, #177 ) ;
#57 = MECHANICAL_CONTEXT ( 'NONE', #131, 'mechanical' ) ;
#58 = DATE_AND_TIME ( #256, #255 ) ;
#59 = SECURITY_CLASSIFICATION_LEVEL ( 'unclassified' ) ;
#60 = AXIS2_PLACEMENT_3D ( 'NONE', #143, #223, #198 ) ;
#61 = ORIENTED_EDGE ( 'NONE', *, *, #298, .F. ) ;
#62 = AXIS2_PLACEMENT_3D ( 'NONE', #170, #213, #190 ) ;
#63 = TOROIDAL_SURFACE ( 'NONE', #300, 1.050000000000000044, 0.2000000000000000111 ) ;
#64 = ORIENTED_EDGE ( 'NONE', *, *, #1, .T. ) ;
#65 = EDGE_CURVE ( 'NONE', #259, #232, #93, .T. ) ;
#66 = EDGE_LOOP ( 'NONE', ( #185, #135, #61, #184 ) ) ;
#67 = CARTESIAN_POINT ( 'NONE',  ( 0.000000000000000000, 0.000000000000000000, 101.5000000000000000 ) ) ;
#68 = ORIENTED_EDGE ( 'NONE', *, *, #257, .T. ) ;
#69 = DESIGN_CONTEXT ( 'detailed design', #205, 'design' ) ;
#70 = DIRECTION ( 'NONE',  ( 0.000000000000000000, 0.000000000000000000, 1.000000000000000000 ) ) ;
#71 = ORIENTED_EDGE ( 'NONE', *, *, #98, .T. ) ;
#72 = CARTESIAN_POINT ( 'NONE',  ( 0.000000000000000000, 0.000000000000000000, 101.5000000000000000 ) ) ;
#73 = DIRECTION ( 'NONE',  ( 1.000000000000000000, 0.000000000000000000, 0.000000000000000000 ) ) ;
#74 = CARTESIAN_POINT ( 'NONE',  ( 0.000000000000000000, 0.000000000000000000, 101.5000000000000000 ) ) ;
#75 = VERTEX_POINT ( 'NONE', #288 ) ;
#76 = CIRCLE ( 'NONE', #196, 2.000000000000000000 ) ;
#77 = EDGE_CURVE ( 'NONE', #43, #138, #161, .T. ) ;
#78 = DIRECTION ( 'NONE',  ( -0.000000000000000000, -0.000000000000000000, -1.000000000000000000 ) ) ;
#79 = AXIS2_PLACEMENT_3D ( 'NONE', #179, #199, #20 ) ;
#80 = CYLINDRICAL_SURFACE ( 'NONE', #46, 2.000000000000000000 ) ;
#81 = VECTOR ( 'NONE', #262, 1000.000000000000000 ) ;
#82 = CALENDAR_DATE ( 2022, 7, 7 ) ;
#83 = EDGE_CURVE ( 'NONE', #278, #110, #28, .T. ) ;
#84 = CALENDAR_DATE ( 2022, 7, 7 ) ;
#85 = APPROVAL_STATUS ( 'not_yet_approved' ) ;
#86 = ADVANCED_FACE ( 'NONE', ( #13 ), #282, .T. ) ;
#87 = PERSON_AND_ORGANIZATION_ROLE ( 'creator' ) ;
#88 = ORIENTED_EDGE ( 'NONE', *, *, #136, .T. ) ;
#89 = CALENDAR_DATE ( 2022, 7, 7 ) ;
#90 = APPROVAL ( #304, 'NEURÈENÝ' ) ;
#91 = EDGE_LOOP ( 'NONE', ( #158, #71, #24, #140 ) ) ;
#92 = CARTESIAN_POINT ( 'NONE',  ( 0.000000000000000000, 0.000000000000000000, 1.500000000000000000 ) ) ;
#93 = LINE ( 'NONE', #144, #81 ) ;
#94 = PLANE ( 'NONE',  #189 ) ;
#95 = ORIENTED_EDGE ( 'NONE', *, *, #130, .F. ) ;
#96 = DIRECTION ( 'NONE',  ( 0.000000000000000000, -1.000000000000000000, 0.000000000000000000 ) ) ;
#97 = AXIS2_PLACEMENT_3D ( 'NONE', #195, #285, #296 ) ;
#98 = EDGE_CURVE ( 'NONE', #278, #99, #236, .T. ) ;
#99 = VERTEX_POINT ( 'NONE', #51 ) ;
#100 = CARTESIAN_POINT ( 'NONE',  ( 0.000000000000000000, 0.000000000000000000, 1.700000000000007061 ) ) ;
#101 = CARTESIAN_POINT ( 'NONE',  ( -2.000000000000000000, 0.000000000000000000, 1.500000000000000000 ) ) ;
#102 = FACE_OUTER_BOUND ( 'NONE', #172, .T. ) ;
#103 = FACE_OUTER_BOUND ( 'NONE', #119, .T. ) ;
#104 = CIRCLE ( 'NONE', #197, 0.8499999999999999778 ) ;
#105 = EDGE_CURVE ( 'NONE', #110, #75, #245, .T. ) ;
#106 = DATE_AND_TIME ( #133, #234 ) ;
#107 = ORIENTED_EDGE ( 'NONE', *, *, #77, .T. ) ;
#108 = APPROVAL_ROLE ( '' ) ;
#109 = CC_DESIGN_PERSON_AND_ORGANIZATION_ASSIGNMENT ( #40, #252, ( #301 ) ) ;
#110 = VERTEX_POINT ( 'NONE', #290 ) ;
#111 = CIRCLE ( 'NONE', #292, 0.2000000000000000944 ) ;
#112 = CC_DESIGN_SECURITY_CLASSIFICATION ( #137, ( #216 ) ) ;
#113 = DIRECTION ( 'NONE',  ( 0.000000000000000000, 0.000000000000000000, 1.000000000000000000 ) ) ;
#114 = ADVANCED_FACE ( 'NONE', ( #209 ), #63, .F. ) ;
#115 = ORGANIZATION ( 'NEURÈENÝ', 'NEURÈENÝ', '' ) ;
#116 = CARTESIAN_POINT ( 'NONE',  ( 2.000000000000000000, 2.449293598294706414E-16, 1.500000000000000000 ) ) ;
#117 = CARTESIAN_POINT ( 'NONE',  ( 1.050000000000000044, 0.000000000000000000, 1.700000000000007061 ) ) ;
#118 = AXIS2_PLACEMENT_3D ( 'NONE', #192, #113, #283 ) ;
#119 = EDGE_LOOP ( 'NONE', ( #230, #44, #286, #2 ) ) ;
#120 = FACE_OUTER_BOUND ( 'NONE', #231, .T. ) ;
#121 = DIRECTION ( 'NONE',  ( -0.000000000000000000, -0.000000000000000000, -1.000000000000000000 ) ) ;
#122 = DIRECTION ( 'NONE',  ( 1.224646799147353207E-16, 1.000000000000000000, -0.000000000000000000 ) ) ;
#123 = EDGE_LOOP ( 'NONE', ( #217, #107 ) ) ;
#124 =( LENGTH_UNIT ( ) NAMED_UNIT ( * ) SI_UNIT ( .MILLI., .METRE. ) );
#125 = CARTESIAN_POINT ( 'NONE',  ( 0.000000000000000000, 0.000000000000000000, 1.700000000000007061 ) ) ;
#126 = DIRECTION ( 'NONE',  ( -1.000000000000000000, 0.000000000000000000, 0.000000000000000000 ) ) ;
#127 = CC_DESIGN_APPROVAL ( #90, ( #222 ) ) ;
#128 = SHAPE_DEFINITION_REPRESENTATION ( #206, #261 ) ;
#129 = APPROVAL_ROLE ( '' ) ;
#130 = EDGE_CURVE ( 'NONE', #110, #278, #306, .T. ) ;
#131 = APPLICATION_CONTEXT ( 'configuration controlled 3d designs of mechanical parts and assemblies' ) ;
#132 = PERSON_AND_ORGANIZATION ( #250, #115 ) ;
#133 = CALENDAR_DATE ( 2022, 7, 7 ) ;
#134 = VECTOR ( 'NONE', #27, 1000.000000000000000 ) ;
#135 = ORIENTED_EDGE ( 'NONE', *, *, #276, .T. ) ;
#136 = EDGE_CURVE ( 'NONE', #75, #99, #76, .T. ) ;
#137 = SECURITY_CLASSIFICATION ( '', '', #59 ) ;
#138 = VERTEX_POINT ( 'NONE', #148 ) ;
#139 = EDGE_CURVE ( 'NONE', #232, #47, #3, .T. ) ;
#140 = ORIENTED_EDGE ( 'NONE', *, *, #105, .F. ) ;
#141 = DIRECTION ( 'NONE',  ( 0.000000000000000000, 0.000000000000000000, 1.000000000000000000 ) ) ;
#142 = ORIENTED_EDGE ( 'NONE', *, *, #145, .T. ) ;
#143 = CARTESIAN_POINT ( 'NONE',  ( 0.000000000000000000, 0.000000000000000000, 0.000000000000000000 ) ) ;
#144 = CARTESIAN_POINT ( 'NONE',  ( 0.8499999999999999778, 1.040949779275250140E-16, 101.5000000000000000 ) ) ;
#145 = EDGE_CURVE ( 'NONE', #232, #138, #111, .T. ) ;
#146 = DIRECTION ( 'NONE',  ( 0.000000000000000000, 0.000000000000000000, 1.000000000000000000 ) ) ;
#147 = ORIENTED_EDGE ( 'NONE', *, *, #83, .T. ) ;
#148 = CARTESIAN_POINT ( 'NONE',  ( 1.050000000000000044, 0.000000000000000000, 1.500000000000003553 ) ) ;
#149 = CARTESIAN_POINT ( 'NONE',  ( -0.8499999999999999778, 0.000000000000000000, 101.5000000000000000 ) ) ;
#150 = ADVANCED_FACE ( 'NONE', ( #33 ), #165, .F. ) ;
#151 = DATE_AND_TIME ( #89, #293 ) ;
#152 = PERSON_AND_ORGANIZATION ( #250, #115 ) ;
#153 = AXIS2_PLACEMENT_3D ( 'NONE', #100, #70, #175 ) ;
#154 =( NAMED_UNIT ( * ) PLANE_ANGLE_UNIT ( ) SI_UNIT ( $, .RADIAN. ) );
#155 = CC_DESIGN_DATE_AND_TIME_ASSIGNMENT ( #58, #156, ( #137 ) ) ;
#156 = DATE_TIME_ROLE ( 'classification_date' ) ;
#157 = PERSON_AND_ORGANIZATION ( #250, #115 ) ;
#158 = ORIENTED_EDGE ( 'NONE', *, *, #83, .F. ) ;
#159 = CC_DESIGN_PERSON_AND_ORGANIZATION_ASSIGNMENT ( #157, #299, ( #137 ) ) ;
#160 = EDGE_CURVE ( 'NONE', #162, #47, #193, .T. ) ;
#161 = CIRCLE ( 'NONE', #183, 1.050000000000000044 ) ;
#162 = VERTEX_POINT ( 'NONE', #149 ) ;
#163 = ORIENTED_EDGE ( 'NONE', *, *, #130, .T. ) ;
#164 = CARTESIAN_POINT ( 'NONE',  ( 0.000000000000000000, 0.000000000000000000, 1.700000000000007061 ) ) ;
#165 = TOROIDAL_SURFACE ( 'NONE', #277, 1.050000000000000044, 0.2000000000000000111 ) ;
#166 = CARTESIAN_POINT ( 'NONE',  ( -0.8499999999999999778, 0.000000000000000000, 1.700000000000007061 ) ) ;
#167 = CARTESIAN_POINT ( 'NONE',  ( 0.8499999999999999778, 1.040949779275250140E-16, 101.5000000000000000 ) ) ;
#168 = CARTESIAN_POINT ( 'NONE',  ( 0.000000000000000000, 0.000000000000000000, 101.5000000000000000 ) ) ;
#169 = CARTESIAN_POINT ( 'NONE',  ( 0.000000000000000000, 0.000000000000000000, 1.500000000000000000 ) ) ;
#170 = CARTESIAN_POINT ( 'NONE',  ( 0.000000000000000000, 0.000000000000000000, 1.500000000000000000 ) ) ;
#171 = DIRECTION ( 'NONE',  ( 1.000000000000000000, 0.000000000000000000, 0.000000000000000000 ) ) ;
#172 = EDGE_LOOP ( 'NONE', ( #49, #64 ) ) ;
#173 = CC_DESIGN_PERSON_AND_ORGANIZATION_ASSIGNMENT ( #17, #38, ( #216 ) ) ;
#174 = DIRECTION ( 'NONE',  ( 0.000000000000000000, 0.000000000000000000, -1.000000000000000000 ) ) ;
#175 = DIRECTION ( 'NONE',  ( 1.000000000000000000, 0.000000000000000000, 0.000000000000000000 ) ) ;
#176 = APPROVAL_DATE_TIME ( #106, #90 ) ;
#177 = LOCAL_TIME ( 12, 38, 0.000000000000000000, #202 ) ;
#178 = DATE_AND_TIME ( #84, #294 ) ;
#179 = CARTESIAN_POINT ( 'NONE',  ( 0.000000000000000000, 0.000000000000000000, 0.000000000000000000 ) ) ;
#180 = ORIENTED_EDGE ( 'NONE', *, *, #65, .F. ) ;
#181 = APPROVAL_DATE_TIME ( #56, #279 ) ;
#182 = ADVANCED_FACE ( 'NONE', ( #191 ), #80, .T. ) ;
#183 = AXIS2_PLACEMENT_3D ( 'NONE', #31, #121, #6 ) ;
#184 = ORIENTED_EDGE ( 'NONE', *, *, #145, .F. ) ;
#185 = ORIENTED_EDGE ( 'NONE', *, *, #257, .F. ) ;
#186 = ORIENTED_EDGE ( 'NONE', *, *, #77, .F. ) ;
#187 = CARTESIAN_POINT ( 'NONE',  ( -0.8499999999999999778, 0.000000000000000000, 101.5000000000000000 ) ) ;
#188 = ADVANCED_FACE ( 'NONE', ( #287 ), #273, .F. ) ;
#189 = AXIS2_PLACEMENT_3D ( 'NONE', #72, #146, #12 ) ;
#190 = DIRECTION ( 'NONE',  ( 1.000000000000000000, 0.000000000000000000, 0.000000000000000000 ) ) ;
#191 = FACE_OUTER_BOUND ( 'NONE', #11, .T. ) ;
#192 = CARTESIAN_POINT ( 'NONE',  ( 0.000000000000000000, 0.000000000000000000, 0.000000000000000000 ) ) ;
#193 = LINE ( 'NONE', #187, #242 ) ;
#194 = DIRECTION ( 'NONE',  ( -0.000000000000000000, -0.000000000000000000, -1.000000000000000000 ) ) ;
#195 = CARTESIAN_POINT ( 'NONE',  ( 0.000000000000000000, 0.000000000000000000, 101.5000000000000000 ) ) ;
#196 = AXIS2_PLACEMENT_3D ( 'NONE', #210, #15, #221 ) ;
#197 = AXIS2_PLACEMENT_3D ( 'NONE', #74, #267, #171 ) ;
#198 = DIRECTION ( 'NONE',  ( 1.000000000000000000, 0.000000000000000000, -0.000000000000000000 ) ) ;
#199 = DIRECTION ( 'NONE',  ( 0.000000000000000000, 0.000000000000000000, 1.000000000000000000 ) ) ;
#200 = APPROVAL_ROLE ( '' ) ;
#201 = APPLICATION_PROTOCOL_DEFINITION ( 'international standard', 'config_control_design', 1994, #131 ) ;
#202 = COORDINATED_UNIVERSAL_TIME_OFFSET ( 1, 0, .AHEAD. ) ;
#203 = ADVANCED_FACE ( 'NONE', ( #237 ), #14, .T. ) ;
#204 = COORDINATED_UNIVERSAL_TIME_OFFSET ( 1, 0, .AHEAD. ) ;
#205 = APPLICATION_CONTEXT ( 'configuration controlled 3d designs of mechanical parts and assemblies' ) ;
#206 = PRODUCT_DEFINITION_SHAPE ( 'NONE', 'NONE',  #222 ) ;
#207 = EDGE_LOOP ( 'NONE', ( #281, #23 ) ) ;
#208 = AXIS2_PLACEMENT_3D ( 'NONE', #92, #141, #25 ) ;
#209 = FACE_OUTER_BOUND ( 'NONE', #54, .T. ) ;
#210 = CARTESIAN_POINT ( 'NONE',  ( 0.000000000000000000, 0.000000000000000000, 0.000000000000000000 ) ) ;
#211 = AXIS2_PLACEMENT_3D ( 'NONE', #168, #264, #73 ) ;
#212 = DIRECTION ( 'NONE',  ( 1.000000000000000000, 0.000000000000000000, -0.000000000000000000 ) ) ;
#213 = DIRECTION ( 'NONE',  ( 0.000000000000000000, 0.000000000000000000, 1.000000000000000000 ) ) ;
#214 = UNCERTAINTY_MEASURE_WITH_UNIT (LENGTH_MEASURE( 1.000000000000000082E-05 ), #124, 'distance_accuracy_value', 'NONE');
#215 = DIRECTION ( 'NONE',  ( -1.000000000000000000, 1.224646799147353207E-16, 0.000000000000000000 ) ) ;
#216 = PRODUCT_DEFINITION_FORMATION_WITH_SPECIFIED_SOURCE ( 'LIBOVOLNÝ', '', #301, .NOT_KNOWN. ) ;
#217 = ORIENTED_EDGE ( 'NONE', *, *, #298, .T. ) ;
#218 = VECTOR ( 'NONE', #194, 1000.000000000000000 ) ;
#219 = ORIENTED_EDGE ( 'NONE', *, *, #160, .T. ) ;
#220 = DIRECTION ( 'NONE',  ( 0.000000000000000000, 0.000000000000000000, 1.000000000000000000 ) ) ;
#221 = DIRECTION ( 'NONE',  ( 1.000000000000000000, 0.000000000000000000, 0.000000000000000000 ) ) ;
#222 = PRODUCT_DEFINITION ( 'NEZNÁMÝ', '', #216, #69 ) ;
#223 = DIRECTION ( 'NONE',  ( 0.000000000000000000, 0.000000000000000000, 1.000000000000000000 ) ) ;
#224 = CC_DESIGN_PERSON_AND_ORGANIZATION_ASSIGNMENT ( #274, #228, ( #216 ) ) ;
#225 = COORDINATED_UNIVERSAL_TIME_OFFSET ( 1, 0, .AHEAD. ) ;
#226 = CIRCLE ( 'NONE', #235, 0.2000000000000000944 ) ;
#227 = ADVANCED_FACE ( 'NONE', ( #240, #120 ), #271, .T. ) ;
#228 = PERSON_AND_ORGANIZATION_ROLE ( 'design_supplier' ) ;
#229 = ADVANCED_FACE ( 'NONE', ( #102 ), #94, .T. ) ;
#230 = ORIENTED_EDGE ( 'NONE', *, *, #1, .F. ) ;
#231 = EDGE_LOOP ( 'NONE', ( #163, #147 ) ) ;
#232 = VERTEX_POINT ( 'NONE', #16 ) ;
#233 = CC_DESIGN_APPROVAL ( #307, ( #137 ) ) ;
#234 = LOCAL_TIME ( 12, 38, 0.000000000000000000, #225 ) ;
#235 = AXIS2_PLACEMENT_3D ( 'NONE', #263, #122, #215 ) ;
#236 = LINE ( 'NONE', #116, #134 ) ;
#237 = FACE_OUTER_BOUND ( 'NONE', #91, .T. ) ;
#238 = CARTESIAN_POINT ( 'NONE',  ( -1.050000000000000044, 1.285879139104720732E-16, 1.500000000000003553 ) ) ;
#239 = EDGE_CURVE ( 'NONE', #162, #259, #104, .T. ) ;
#240 = FACE_BOUND ( 'NONE', #123, .T. ) ;
#241 = ORIENTED_EDGE ( 'NONE', *, *, #105, .T. ) ;
#242 = VECTOR ( 'NONE', #248, 1000.000000000000000 ) ;
#243 = AXIS2_PLACEMENT_3D ( 'NONE', #125, #247, #34 ) ;
#244 = APPROVAL_PERSON_ORGANIZATION ( #275, #279, #129 ) ;
#245 = LINE ( 'NONE', #101, #218 ) ;
#246 =( GEOMETRIC_REPRESENTATION_CONTEXT ( 3 ) GLOBAL_UNCERTAINTY_ASSIGNED_CONTEXT ( ( #214 ) ) GLOBAL_UNIT_ASSIGNED_CONTEXT ( ( #124, #154, #36 ) ) REPRESENTATION_CONTEXT ( 'NONE', 'WORKASPACE' ) );
#247 = DIRECTION ( 'NONE',  ( 0.000000000000000000, 0.000000000000000000, 1.000000000000000000 ) ) ;
#248 = DIRECTION ( 'NONE',  ( -0.000000000000000000, -0.000000000000000000, -1.000000000000000000 ) ) ;
#249 = APPROVAL_DATE_TIME ( #151, #307 ) ;
#250 = PERSON ( 'NEURÈENÝ', 'NEURÈENÝ', 'NEURÈENÝ', ('NEURÈENÝ'), ('NEURÈENÝ'), ('NEURÈENÝ') ) ;
#251 = ADVANCED_FACE ( 'NONE', ( #103 ), #7, .T. ) ;
#252 = PERSON_AND_ORGANIZATION_ROLE ( 'design_owner' ) ;
#253 = CC_DESIGN_PERSON_AND_ORGANIZATION_ASSIGNMENT ( #132, #87, ( #222 ) ) ;
#254 = DATE_TIME_ROLE ( 'creation_date' ) ;
#255 = LOCAL_TIME ( 12, 38, 0.000000000000000000, #18 ) ;
#256 = CALENDAR_DATE ( 2022, 7, 7 ) ;
#257 = EDGE_CURVE ( 'NONE', #47, #232, #53, .T. ) ;
#258 = CIRCLE ( 'NONE', #118, 2.000000000000000000 ) ;
#259 = VERTEX_POINT ( 'NONE', #167 ) ;
#260 = DIRECTION ( 'NONE',  ( 0.000000000000000000, 0.000000000000000000, 1.000000000000000000 ) ) ;
#261 = ADVANCED_BREP_SHAPE_REPRESENTATION ( '236b', ( #29, #79 ), #246 ) ;
#262 = DIRECTION ( 'NONE',  ( -0.000000000000000000, -0.000000000000000000, -1.000000000000000000 ) ) ;
#263 = CARTESIAN_POINT ( 'NONE',  ( -1.050000000000000044, 1.285879139104720732E-16, 1.700000000000007061 ) ) ;
#264 = DIRECTION ( 'NONE',  ( 0.000000000000000000, 0.000000000000000000, 1.000000000000000000 ) ) ;
#265 = CARTESIAN_POINT ( 'NONE',  ( 0.000000000000000000, 0.000000000000000000, 1.500000000000000000 ) ) ;
#266 = DIRECTION ( 'NONE',  ( -0.000000000000000000, -0.000000000000000000, -1.000000000000000000 ) ) ;
#267 = DIRECTION ( 'NONE',  ( 0.000000000000000000, 0.000000000000000000, 1.000000000000000000 ) ) ;
#268 = CC_DESIGN_APPROVAL ( #279, ( #216 ) ) ;
#269 = ORIENTED_EDGE ( 'NONE', *, *, #139, .F. ) ;
#270 = CIRCLE ( 'NONE', #4, 1.050000000000000044 ) ;
#271 = PLANE ( 'NONE',  #284 ) ;
#272 = CIRCLE ( 'NONE', #211, 0.8499999999999999778 ) ;
#273 = PLANE ( 'NONE',  #60 ) ;
#274 = PERSON_AND_ORGANIZATION ( #250, #115 ) ;
#275 = PERSON_AND_ORGANIZATION ( #250, #115 ) ;
#276 = EDGE_CURVE ( 'NONE', #47, #43, #226, .T. ) ;
#277 = AXIS2_PLACEMENT_3D ( 'NONE', #55, #220, #35 ) ;
#278 = VERTEX_POINT ( 'NONE', #10 ) ;
#279 = APPROVAL ( #85, 'NEURÈENÝ' ) ;
#280 = EDGE_LOOP ( 'NONE', ( #180, #8, #219, #68 ) ) ;
#281 = ORIENTED_EDGE ( 'NONE', *, *, #136, .F. ) ;
#282 = CYLINDRICAL_SURFACE ( 'NONE', #42, 0.8499999999999999778 ) ;
#283 = DIRECTION ( 'NONE',  ( 1.000000000000000000, 0.000000000000000000, 0.000000000000000000 ) ) ;
#284 = AXIS2_PLACEMENT_3D ( 'NONE', #289, #30, #212 ) ;
#285 = DIRECTION ( 'NONE',  ( -0.000000000000000000, -0.000000000000000000, -1.000000000000000000 ) ) ;
#286 = ORIENTED_EDGE ( 'NONE', *, *, #139, .T. ) ;
#287 = FACE_OUTER_BOUND ( 'NONE', #207, .T. ) ;
#288 = CARTESIAN_POINT ( 'NONE',  ( -2.000000000000000000, 0.000000000000000000, 0.000000000000000000 ) ) ;
#289 = CARTESIAN_POINT ( 'NONE',  ( 0.000000000000000000, 0.000000000000000000, 1.500000000000000000 ) ) ;
#290 = CARTESIAN_POINT ( 'NONE',  ( -2.000000000000000000, 0.000000000000000000, 1.500000000000000000 ) ) ;
#291 = DIRECTION ( 'NONE',  ( -1.000000000000000000, 0.000000000000000000, 0.000000000000000000 ) ) ;
#292 = AXIS2_PLACEMENT_3D ( 'NONE', #117, #96, #174 ) ;
#293 = LOCAL_TIME ( 12, 38, 0.000000000000000000, #204 ) ;
#294 = LOCAL_TIME ( 12, 38, 0.000000000000000000, #39 ) ;
#295 = APPROVAL_PERSON_ORGANIZATION ( #152, #90, #200 ) ;
#296 = DIRECTION ( 'NONE',  ( -1.000000000000000000, 0.000000000000000000, 0.000000000000000000 ) ) ;
#297 = CLOSED_SHELL ( 'NONE', ( #150, #251, #203, #182, #227, #188, #86, #229, #114 ) ) ;
#298 = EDGE_CURVE ( 'NONE', #138, #43, #270, .T. ) ;
#299 = PERSON_AND_ORGANIZATION_ROLE ( 'classification_officer' ) ;
#300 = AXIS2_PLACEMENT_3D ( 'NONE', #164, #260, #45 ) ;
#301 = PRODUCT ( '236b', '236b', '', ( #57 ) ) ;
#302 = APPLICATION_PROTOCOL_DEFINITION ( 'international standard', 'config_control_design', 1994, #205 ) ;
#303 = PRODUCT_RELATED_PRODUCT_CATEGORY ( 'detail', '', ( #301 ) ) ;
#304 = APPROVAL_STATUS ( 'not_yet_approved' ) ;
#305 = ORIENTED_EDGE ( 'NONE', *, *, #98, .F. ) ;
#306 = CIRCLE ( 'NONE', #208, 2.000000000000000000 ) ;
#307 = APPROVAL ( #37, 'NEURÈENÝ' ) ;
ENDSEC;
END-ISO-10303-21;
