ISO-10303-21;
HEADER;
FILE_DESCRIPTION (( 'STEP AP203' ),
    '1' );
FILE_NAME ('427a.STEP',
    '2022-07-07T10:17:22',
    ( '' ),
    ( '' ),
    'SwSTEP 2.0',
    'SolidWorks 2019',
    '' );
FILE_SCHEMA (( 'CONFIG_CONTROL_DESIGN' ));
ENDSEC;

DATA;
#1 = CC_DESIGN_APPROVAL ( #72, ( #294 ) ) ;
#2 = CARTESIAN_POINT ( 'NONE',  ( 0.000000000000000000, 0.000000000000000000, 318.0000000000000000 ) ) ;
#3 = ORIENTED_EDGE ( 'NONE', *, *, #184, .T. ) ;
#4 = DIRECTION ( 'NONE',  ( 1.000000000000000000, 0.000000000000000000, 0.000000000000000000 ) ) ;
#5 = FACE_OUTER_BOUND ( 'NONE', #48, .T. ) ;
#6 = EDGE_CURVE ( 'NONE', #40, #241, #282, .T. ) ;
#7 = DIRECTION ( 'NONE',  ( 0.000000000000000000, -1.000000000000000000, 0.000000000000000000 ) ) ;
#8 =( LENGTH_UNIT ( ) NAMED_UNIT ( * ) SI_UNIT ( .MILLI., .METRE. ) );
#9 = DIRECTION ( 'NONE',  ( 1.000000000000000000, 0.000000000000000000, 0.000000000000000000 ) ) ;
#10 = AXIS2_PLACEMENT_3D ( 'NONE', #2, #193, #127 ) ;
#11 = CC_DESIGN_APPROVAL ( #181, ( #89 ) ) ;
#12 = CARTESIAN_POINT ( 'NONE',  ( -2.799999999999999822, 3.429011037612589276E-16, 2.999999999999990674 ) ) ;
#13 = DIRECTION ( 'NONE',  ( -0.000000000000000000, -0.000000000000000000, -1.000000000000000000 ) ) ;
#14 = PERSON_AND_ORGANIZATION ( #110, #234 ) ;
#15 = AXIS2_PLACEMENT_3D ( 'NONE', #165, #28, #25 ) ;
#16 = EDGE_CURVE ( 'NONE', #92, #235, #79, .T. ) ;
#17 = APPROVAL_DATE_TIME ( #160, #72 ) ;
#18 = COORDINATED_UNIVERSAL_TIME_OFFSET ( 1, 0, .AHEAD. ) ;
#19 = DIRECTION ( 'NONE',  ( -0.000000000000000000, -0.000000000000000000, -1.000000000000000000 ) ) ;
#20 = COORDINATED_UNIVERSAL_TIME_OFFSET ( 1, 0, .AHEAD. ) ;
#21 = DIRECTION ( 'NONE',  ( -0.000000000000000000, -0.000000000000000000, -1.000000000000000000 ) ) ;
#22 = ORIENTED_EDGE ( 'NONE', *, *, #268, .T. ) ;
#23 = EDGE_LOOP ( 'NONE', ( #86, #236 ) ) ;
#24 = EDGE_CURVE ( 'NONE', #260, #280, #95, .T. ) ;
#25 = DIRECTION ( 'NONE',  ( 1.000000000000000000, 0.000000000000000000, 0.000000000000000000 ) ) ;
#26 = CARTESIAN_POINT ( 'NONE',  ( 0.000000000000000000, 0.000000000000000000, 318.0000000000000000 ) ) ;
#27 = ORIENTED_EDGE ( 'NONE', *, *, #278, .F. ) ;
#28 = DIRECTION ( 'NONE',  ( 0.000000000000000000, 0.000000000000000000, 1.000000000000000000 ) ) ;
#29 = CYLINDRICAL_SURFACE ( 'NONE', #299, 2.600000000000000089 ) ;
#30 = FACE_BOUND ( 'NONE', #214, .T. ) ;
#31 = MANIFOLD_SOLID_BREP ( 'Zaoblit1', #153 ) ;
#32 = DIRECTION ( 'NONE',  ( -1.000000000000000000, 1.224646799147353207E-16, 0.000000000000000000 ) ) ;
#33 = APPROVAL ( #142, 'NEURÈENÝ' ) ;
#34 = CARTESIAN_POINT ( 'NONE',  ( 2.799999999999999822, 0.000000000000000000, 3.199999999999980638 ) ) ;
#35 = CC_DESIGN_PERSON_AND_ORGANIZATION_ASSIGNMENT ( #255, #301, ( #89 ) ) ;
#36 = APPROVAL_DATE_TIME ( #281, #181 ) ;
#37 = PERSON_AND_ORGANIZATION_ROLE ( 'design_owner' ) ;
#38 = LOCAL_TIME ( 12, 17, 22.00000000000000000, #275 ) ;
#39 = DATE_TIME_ROLE ( 'classification_date' ) ;
#40 = VERTEX_POINT ( 'NONE', #189 ) ;
#41 = CALENDAR_DATE ( 2022, 7, 7 ) ;
#42 = ORIENTED_EDGE ( 'NONE', *, *, #63, .F. ) ;
#43 = VERTEX_POINT ( 'NONE', #117 ) ;
#44 = PERSON_AND_ORGANIZATION ( #110, #234 ) ;
#45 = FACE_OUTER_BOUND ( 'NONE', #231, .T. ) ;
#46 = ORIENTED_EDGE ( 'NONE', *, *, #179, .T. ) ;
#47 = AXIS2_PLACEMENT_3D ( 'NONE', #26, #216, #91 ) ;
#48 = EDGE_LOOP ( 'NONE', ( #238, #46, #77, #190 ) ) ;
#49 = AXIS2_PLACEMENT_3D ( 'NONE', #242, #154, #201 ) ;
#50 = ORIENTED_EDGE ( 'NONE', *, *, #143, .T. ) ;
#51 = ORIENTED_EDGE ( 'NONE', *, *, #192, .T. ) ;
#52 = DIRECTION ( 'NONE',  ( -0.000000000000000000, -0.000000000000000000, -1.000000000000000000 ) ) ;
#53 = DIRECTION ( 'NONE',  ( 0.000000000000000000, 0.000000000000000000, 1.000000000000000000 ) ) ;
#54 = CARTESIAN_POINT ( 'NONE',  ( -5.000000000000000000, 0.000000000000000000, 3.000000000000000000 ) ) ;
#55 = DIRECTION ( 'NONE',  ( 1.000000000000000000, 0.000000000000000000, 0.000000000000000000 ) ) ;
#56 = CC_DESIGN_PERSON_AND_ORGANIZATION_ASSIGNMENT ( #14, #37, ( #226 ) ) ;
#57 = DIRECTION ( 'NONE',  ( 0.000000000000000000, 0.000000000000000000, 1.000000000000000000 ) ) ;
#58 = TOROIDAL_SURFACE ( 'NONE', #304, 2.799999999999999822, 0.2000000000000000111 ) ;
#59 = CC_DESIGN_SECURITY_CLASSIFICATION ( #294, ( #89 ) ) ;
#60 = PERSON_AND_ORGANIZATION ( #110, #234 ) ;
#61 = ADVANCED_FACE ( 'NONE', ( #45 ), #293, .F. ) ;
#62 = COORDINATED_UNIVERSAL_TIME_OFFSET ( 1, 0, .AHEAD. ) ;
#63 = EDGE_CURVE ( 'NONE', #40, #92, #198, .T. ) ;
#64 = PERSON_AND_ORGANIZATION ( #110, #234 ) ;
#65 = ORIENTED_EDGE ( 'NONE', *, *, #169, .F. ) ;
#66 = ADVANCED_FACE ( 'NONE', ( #240 ), #174, .T. ) ;
#67 = PERSON_AND_ORGANIZATION_ROLE ( 'classification_officer' ) ;
#68 = DIRECTION ( 'NONE',  ( 1.000000000000000000, 0.000000000000000000, 0.000000000000000000 ) ) ;
#69 = EDGE_LOOP ( 'NONE', ( #123, #27, #164, #51 ) ) ;
#70 = AXIS2_PLACEMENT_3D ( 'NONE', #248, #296, #82 ) ;
#71 = AXIS2_PLACEMENT_3D ( 'NONE', #305, #141, #84 ) ;
#72 = APPROVAL ( #204, 'NEURÈENÝ' ) ;
#73 = ORIENTED_EDGE ( 'NONE', *, *, #24, .T. ) ;
#74 = DIRECTION ( 'NONE',  ( -1.000000000000000000, 0.000000000000000000, 0.000000000000000000 ) ) ;
#75 = ORIENTED_EDGE ( 'NONE', *, *, #179, .F. ) ;
#76 = VECTOR ( 'NONE', #292, 1000.000000000000000 ) ;
#77 = ORIENTED_EDGE ( 'NONE', *, *, #264, .T. ) ;
#78 = AXIS2_PLACEMENT_3D ( 'NONE', #135, #180, #199 ) ;
#79 = LINE ( 'NONE', #145, #257 ) ;
#80 = DIRECTION ( 'NONE',  ( 0.000000000000000000, 0.000000000000000000, 1.000000000000000000 ) ) ;
#81 = DIRECTION ( 'NONE',  ( 1.000000000000000000, 0.000000000000000000, -0.000000000000000000 ) ) ;
#82 = DIRECTION ( 'NONE',  ( 1.000000000000000000, 0.000000000000000000, 0.000000000000000000 ) ) ;
#83 = COORDINATED_UNIVERSAL_TIME_OFFSET ( 1, 0, .AHEAD. ) ;
#84 = DIRECTION ( 'NONE',  ( 1.000000000000000000, 0.000000000000000000, 0.000000000000000000 ) ) ;
#85 = PERSON_AND_ORGANIZATION_ROLE ( 'creator' ) ;
#86 = ORIENTED_EDGE ( 'NONE', *, *, #286, .F. ) ;
#87 = AXIS2_PLACEMENT_3D ( 'NONE', #306, #209, #68 ) ;
#88 = PRODUCT_DEFINITION_SHAPE ( 'NONE', 'NONE',  #200 ) ;
#89 = PRODUCT_DEFINITION_FORMATION_WITH_SPECIFIED_SOURCE ( 'LIBOVOLNÝ', '', #226, .NOT_KNOWN. ) ;
#90 = DATE_AND_TIME ( #249, #158 ) ;
#91 = DIRECTION ( 'NONE',  ( 1.000000000000000000, 0.000000000000000000, -0.000000000000000000 ) ) ;
#92 = VERTEX_POINT ( 'NONE', #265 ) ;
#93 = ORIENTED_EDGE ( 'NONE', *, *, #169, .T. ) ;
#94 = ADVANCED_BREP_SHAPE_REPRESENTATION ( '427a', ( #31, #71 ), #139 ) ;
#95 = CIRCLE ( 'NONE', #124, 2.799999999999999822 ) ;
#96 = CC_DESIGN_APPROVAL ( #33, ( #200 ) ) ;
#97 = CARTESIAN_POINT ( 'NONE',  ( 2.600000000000000089, 3.184081677783118191E-16, 318.0000000000000000 ) ) ;
#98 = ORIENTED_EDGE ( 'NONE', *, *, #283, .T. ) ;
#99 = ORIENTED_EDGE ( 'NONE', *, *, #245, .T. ) ;
#100 = CYLINDRICAL_SURFACE ( 'NONE', #106, 5.000000000000000000 ) ;
#101 = CC_DESIGN_DATE_AND_TIME_ASSIGNMENT ( #210, #225, ( #200 ) ) ;
#102 = CARTESIAN_POINT ( 'NONE',  ( -2.600000000000000089, 0.000000000000000000, 3.199999999999980638 ) ) ;
#103 = ADVANCED_FACE ( 'NONE', ( #129 ), #290, .T. ) ;
#104 = LINE ( 'NONE', #105, #76 ) ;
#105 = CARTESIAN_POINT ( 'NONE',  ( -5.000000000000000000, 0.000000000000000000, 3.000000000000000000 ) ) ;
#106 = AXIS2_PLACEMENT_3D ( 'NONE', #256, #125, #74 ) ;
#107 = AXIS2_PLACEMENT_3D ( 'NONE', #224, #80, #176 ) ;
#108 = PLANE ( 'NONE',  #233 ) ;
#109 = CARTESIAN_POINT ( 'NONE',  ( 0.000000000000000000, 0.000000000000000000, 318.0000000000000000 ) ) ;
#110 = PERSON ( 'NEURÈENÝ', 'NEURÈENÝ', 'NEURÈENÝ', ('NEURÈENÝ'), ('NEURÈENÝ'), ('NEURÈENÝ') ) ;
#111 = APPROVAL_ROLE ( '' ) ;
#112 = CIRCLE ( 'NONE', #167, 5.000000000000000000 ) ;
#113 = APPLICATION_PROTOCOL_DEFINITION ( 'international standard', 'config_control_design', 1994, #156 ) ;
#114 = ADVANCED_FACE ( 'NONE', ( #5 ), #100, .T. ) ;
#115 = CARTESIAN_POINT ( 'NONE',  ( 0.000000000000000000, 0.000000000000000000, 3.000000000000000000 ) ) ;
#116 = CALENDAR_DATE ( 2022, 7, 7 ) ;
#117 = CARTESIAN_POINT ( 'NONE',  ( 5.000000000000000000, 6.123233995736766282E-16, 3.000000000000000000 ) ) ;
#118 = ORIENTED_EDGE ( 'NONE', *, *, #268, .F. ) ;
#119 = CIRCLE ( 'NONE', #107, 5.000000000000000000 ) ;
#120 = PERSON_AND_ORGANIZATION_ROLE ( 'creator' ) ;
#121 = EDGE_LOOP ( 'NONE', ( #42, #287, #22, #126 ) ) ;
#122 = ORIENTED_EDGE ( 'NONE', *, *, #278, .T. ) ;
#123 = ORIENTED_EDGE ( 'NONE', *, *, #6, .F. ) ;
#124 = AXIS2_PLACEMENT_3D ( 'NONE', #148, #215, #170 ) ;
#125 = DIRECTION ( 'NONE',  ( -0.000000000000000000, -0.000000000000000000, -1.000000000000000000 ) ) ;
#126 = ORIENTED_EDGE ( 'NONE', *, *, #16, .F. ) ;
#127 = DIRECTION ( 'NONE',  ( -1.000000000000000000, 0.000000000000000000, 0.000000000000000000 ) ) ;
#128 = ORIENTED_EDGE ( 'NONE', *, *, #286, .T. ) ;
#129 = FACE_OUTER_BOUND ( 'NONE', #263, .T. ) ;
#130 = PRODUCT_RELATED_PRODUCT_CATEGORY ( 'detail', '', ( #226 ) ) ;
#131 = AXIS2_PLACEMENT_3D ( 'NONE', #144, #252, #4 ) ;
#132 = DIRECTION ( 'NONE',  ( -0.000000000000000000, -0.000000000000000000, -1.000000000000000000 ) ) ;
#133 = AXIS2_PLACEMENT_3D ( 'NONE', #34, #7, #196 ) ;
#134 = ADVANCED_FACE ( 'NONE', ( #213 ), #195, .T. ) ;
#135 = CARTESIAN_POINT ( 'NONE',  ( 0.000000000000000000, 0.000000000000000000, 318.0000000000000000 ) ) ;
#136 = CC_DESIGN_PERSON_AND_ORGANIZATION_ASSIGNMENT ( #64, #67, ( #294 ) ) ;
#137 = CARTESIAN_POINT ( 'NONE',  ( 0.000000000000000000, 0.000000000000000000, 3.000000000000000000 ) ) ;
#138 = DIRECTION ( 'NONE',  ( 0.000000000000000000, 0.000000000000000000, 1.000000000000000000 ) ) ;
#139 =( GEOMETRIC_REPRESENTATION_CONTEXT ( 3 ) GLOBAL_UNCERTAINTY_ASSIGNED_CONTEXT ( ( #159 ) ) GLOBAL_UNIT_ASSIGNED_CONTEXT ( ( #8, #177, #183 ) ) REPRESENTATION_CONTEXT ( 'NONE', 'WORKASPACE' ) );
#140 = DIRECTION ( 'NONE',  ( 1.000000000000000000, 0.000000000000000000, 0.000000000000000000 ) ) ;
#141 = DIRECTION ( 'NONE',  ( 0.000000000000000000, 0.000000000000000000, 1.000000000000000000 ) ) ;
#142 = APPROVAL_STATUS ( 'not_yet_approved' ) ;
#143 = EDGE_CURVE ( 'NONE', #43, #151, #262, .T. ) ;
#144 = CARTESIAN_POINT ( 'NONE',  ( 0.000000000000000000, 0.000000000000000000, 3.000000000000000000 ) ) ;
#145 = CARTESIAN_POINT ( 'NONE',  ( -2.600000000000000089, 0.000000000000000000, 318.0000000000000000 ) ) ;
#146 = DIRECTION ( 'NONE',  ( -1.000000000000000000, 0.000000000000000000, 0.000000000000000000 ) ) ;
#147 = ADVANCED_FACE ( 'NONE', ( #229 ), #58, .F. ) ;
#148 = CARTESIAN_POINT ( 'NONE',  ( 0.000000000000000000, 0.000000000000000000, 3.000000000000000000 ) ) ;
#149 = VERTEX_POINT ( 'NONE', #207 ) ;
#150 = CC_DESIGN_PERSON_AND_ORGANIZATION_ASSIGNMENT ( #185, #120, ( #89 ) ) ;
#151 = VERTEX_POINT ( 'NONE', #54 ) ;
#152 = FACE_OUTER_BOUND ( 'NONE', #121, .T. ) ;
#153 = CLOSED_SHELL ( 'NONE', ( #61, #272, #114, #66, #168, #220, #134, #103, #147 ) ) ;
#154 = DIRECTION ( 'NONE',  ( 0.000000000000000000, 0.000000000000000000, 1.000000000000000000 ) ) ;
#155 = CARTESIAN_POINT ( 'NONE',  ( 0.000000000000000000, 0.000000000000000000, 3.000000000000000000 ) ) ;
#156 = APPLICATION_CONTEXT ( 'configuration controlled 3d designs of mechanical parts and assemblies' ) ;
#157 = CARTESIAN_POINT ( 'NONE',  ( 0.000000000000000000, 0.000000000000000000, 3.199999999999980638 ) ) ;
#158 = LOCAL_TIME ( 12, 17, 22.00000000000000000, #83 ) ;
#159 = UNCERTAINTY_MEASURE_WITH_UNIT (LENGTH_MEASURE( 1.000000000000000082E-05 ), #8, 'distance_accuracy_value', 'NONE');
#160 = DATE_AND_TIME ( #116, #251 ) ;
#161 = APPROVAL_PERSON_ORGANIZATION ( #60, #72, #300 ) ;
#162 = APPROVAL_PERSON_ORGANIZATION ( #44, #181, #111 ) ;
#163 = CALENDAR_DATE ( 2022, 7, 7 ) ;
#164 = ORIENTED_EDGE ( 'NONE', *, *, #16, .T. ) ;
#165 = CARTESIAN_POINT ( 'NONE',  ( 0.000000000000000000, 0.000000000000000000, 318.0000000000000000 ) ) ;
#166 = EDGE_LOOP ( 'NONE', ( #99, #50 ) ) ;
#167 = AXIS2_PLACEMENT_3D ( 'NONE', #223, #57, #9 ) ;
#168 = ADVANCED_FACE ( 'NONE', ( #30, #295 ), #108, .T. ) ;
#169 = EDGE_CURVE ( 'NONE', #235, #280, #191, .T. ) ;
#170 = DIRECTION ( 'NONE',  ( 1.000000000000000000, 0.000000000000000000, 0.000000000000000000 ) ) ;
#171 = APPLICATION_CONTEXT ( 'configuration controlled 3d designs of mechanical parts and assemblies' ) ;
#172 = ORIENTED_EDGE ( 'NONE', *, *, #283, .F. ) ;
#173 = AXIS2_PLACEMENT_3D ( 'NONE', #218, #138, #175 ) ;
#174 = CYLINDRICAL_SURFACE ( 'NONE', #222, 5.000000000000000000 ) ;
#175 = DIRECTION ( 'NONE',  ( 1.000000000000000000, 0.000000000000000000, -0.000000000000000000 ) ) ;
#176 = DIRECTION ( 'NONE',  ( 1.000000000000000000, 0.000000000000000000, 0.000000000000000000 ) ) ;
#177 =( NAMED_UNIT ( * ) PLANE_ANGLE_UNIT ( ) SI_UNIT ( $, .RADIAN. ) );
#178 = CARTESIAN_POINT ( 'NONE',  ( 5.000000000000000000, 6.123233995736766282E-16, 3.000000000000000000 ) ) ;
#179 = EDGE_CURVE ( 'NONE', #43, #303, #270, .T. ) ;
#180 = DIRECTION ( 'NONE',  ( 0.000000000000000000, 0.000000000000000000, 1.000000000000000000 ) ) ;
#181 = APPROVAL ( #182, 'NEURÈENÝ' ) ;
#182 = APPROVAL_STATUS ( 'not_yet_approved' ) ;
#183 =( NAMED_UNIT ( * ) SI_UNIT ( $, .STERADIAN. ) SOLID_ANGLE_UNIT ( ) );
#184 = EDGE_CURVE ( 'NONE', #280, #260, #269, .T. ) ;
#185 = PERSON_AND_ORGANIZATION ( #110, #234 ) ;
#186 = PERSON_AND_ORGANIZATION ( #110, #234 ) ;
#187 = CIRCLE ( 'NONE', #49, 2.600000000000000089 ) ;
#188 = ORIENTED_EDGE ( 'NONE', *, *, #63, .T. ) ;
#189 = CARTESIAN_POINT ( 'NONE',  ( 2.600000000000000089, 3.184081677783118191E-16, 318.0000000000000000 ) ) ;
#190 = ORIENTED_EDGE ( 'NONE', *, *, #246, .F. ) ;
#191 = CIRCLE ( 'NONE', #298, 0.2000000000000000944 ) ;
#192 = EDGE_CURVE ( 'NONE', #235, #241, #187, .T. ) ;
#193 = DIRECTION ( 'NONE',  ( -0.000000000000000000, -0.000000000000000000, -1.000000000000000000 ) ) ;
#194 = EDGE_LOOP ( 'NONE', ( #65, #118, #98, #259 ) ) ;
#195 = CYLINDRICAL_SURFACE ( 'NONE', #10, 2.600000000000000089 ) ;
#196 = DIRECTION ( 'NONE',  ( 0.000000000000000000, 0.000000000000000000, -1.000000000000000000 ) ) ;
#197 = DIRECTION ( 'NONE',  ( 1.224646799147353207E-16, 1.000000000000000000, -0.000000000000000000 ) ) ;
#198 = CIRCLE ( 'NONE', #15, 2.600000000000000089 ) ;
#199 = DIRECTION ( 'NONE',  ( 1.000000000000000000, 0.000000000000000000, 0.000000000000000000 ) ) ;
#200 = PRODUCT_DEFINITION ( 'NEZNÁMÝ', '', #89, #227 ) ;
#201 = DIRECTION ( 'NONE',  ( 1.000000000000000000, 0.000000000000000000, 0.000000000000000000 ) ) ;
#202 = CC_DESIGN_DATE_AND_TIME_ASSIGNMENT ( #250, #39, ( #294 ) ) ;
#203 = CARTESIAN_POINT ( 'NONE',  ( -2.799999999999999822, 3.429011037612588783E-16, 3.199999999999980638 ) ) ;
#204 = APPROVAL_STATUS ( 'not_yet_approved' ) ;
#205 = CIRCLE ( 'NONE', #70, 5.000000000000000000 ) ;
#206 = LOCAL_TIME ( 12, 17, 22.00000000000000000, #18 ) ;
#207 = CARTESIAN_POINT ( 'NONE',  ( -5.000000000000000000, 0.000000000000000000, 0.000000000000000000 ) ) ;
#208 = VECTOR ( 'NONE', #19, 1000.000000000000000 ) ;
#209 = DIRECTION ( 'NONE',  ( 0.000000000000000000, 0.000000000000000000, 1.000000000000000000 ) ) ;
#210 = DATE_AND_TIME ( #253, #212 ) ;
#211 = ORIENTED_EDGE ( 'NONE', *, *, #246, .T. ) ;
#212 = LOCAL_TIME ( 12, 17, 22.00000000000000000, #20 ) ;
#213 = FACE_OUTER_BOUND ( 'NONE', #69, .T. ) ;
#214 = EDGE_LOOP ( 'NONE', ( #73, #3 ) ) ;
#215 = DIRECTION ( 'NONE',  ( -0.000000000000000000, -0.000000000000000000, -1.000000000000000000 ) ) ;
#216 = DIRECTION ( 'NONE',  ( 0.000000000000000000, 0.000000000000000000, 1.000000000000000000 ) ) ;
#217 = AXIS2_PLACEMENT_3D ( 'NONE', #137, #132, #297 ) ;
#218 = CARTESIAN_POINT ( 'NONE',  ( 0.000000000000000000, 0.000000000000000000, 0.000000000000000000 ) ) ;
#219 = CARTESIAN_POINT ( 'NONE',  ( 5.000000000000000000, 6.123233995736766282E-16, 0.000000000000000000 ) ) ;
#220 = ADVANCED_FACE ( 'NONE', ( #221 ), #291, .F. ) ;
#221 = FACE_OUTER_BOUND ( 'NONE', #23, .T. ) ;
#222 = AXIS2_PLACEMENT_3D ( 'NONE', #115, #52, #146 ) ;
#223 = CARTESIAN_POINT ( 'NONE',  ( 0.000000000000000000, 0.000000000000000000, 3.000000000000000000 ) ) ;
#224 = CARTESIAN_POINT ( 'NONE',  ( 0.000000000000000000, 0.000000000000000000, 0.000000000000000000 ) ) ;
#225 = DATE_TIME_ROLE ( 'creation_date' ) ;
#226 = PRODUCT ( '427a', '427a', '', ( #302 ) ) ;
#227 = DESIGN_CONTEXT ( 'detailed design', #171, 'design' ) ;
#228 = APPROVAL_DATE_TIME ( #90, #33 ) ;
#229 = FACE_OUTER_BOUND ( 'NONE', #194, .T. ) ;
#230 = PERSON_AND_ORGANIZATION ( #110, #234 ) ;
#231 = EDGE_LOOP ( 'NONE', ( #254, #93, #261, #172 ) ) ;
#232 = SECURITY_CLASSIFICATION_LEVEL ( 'unclassified' ) ;
#233 = AXIS2_PLACEMENT_3D ( 'NONE', #155, #247, #81 ) ;
#234 = ORGANIZATION ( 'NEURÈENÝ', 'NEURÈENÝ', '' ) ;
#235 = VERTEX_POINT ( 'NONE', #102 ) ;
#236 = ORIENTED_EDGE ( 'NONE', *, *, #264, .F. ) ;
#237 = EDGE_LOOP ( 'NONE', ( #75, #307, #211, #128 ) ) ;
#238 = ORIENTED_EDGE ( 'NONE', *, *, #143, .F. ) ;
#239 = CIRCLE ( 'NONE', #78, 2.600000000000000089 ) ;
#240 = FACE_OUTER_BOUND ( 'NONE', #237, .T. ) ;
#241 = VERTEX_POINT ( 'NONE', #267 ) ;
#242 = CARTESIAN_POINT ( 'NONE',  ( 0.000000000000000000, 0.000000000000000000, 3.199999999999980638 ) ) ;
#243 = CIRCLE ( 'NONE', #284, 2.600000000000000089 ) ;
#244 = DIRECTION ( 'NONE',  ( -0.000000000000000000, -0.000000000000000000, -1.000000000000000000 ) ) ;
#245 = EDGE_CURVE ( 'NONE', #151, #43, #112, .T. ) ;
#246 = EDGE_CURVE ( 'NONE', #151, #149, #104, .T. ) ;
#247 = DIRECTION ( 'NONE',  ( 0.000000000000000000, 0.000000000000000000, 1.000000000000000000 ) ) ;
#248 = CARTESIAN_POINT ( 'NONE',  ( 0.000000000000000000, 0.000000000000000000, 0.000000000000000000 ) ) ;
#249 = CALENDAR_DATE ( 2022, 7, 7 ) ;
#250 = DATE_AND_TIME ( #163, #38 ) ;
#251 = LOCAL_TIME ( 12, 17, 22.00000000000000000, #62 ) ;
#252 = DIRECTION ( 'NONE',  ( 0.000000000000000000, 0.000000000000000000, 1.000000000000000000 ) ) ;
#253 = CALENDAR_DATE ( 2022, 7, 7 ) ;
#254 = ORIENTED_EDGE ( 'NONE', *, *, #192, .F. ) ;
#255 = PERSON_AND_ORGANIZATION ( #110, #234 ) ;
#256 = CARTESIAN_POINT ( 'NONE',  ( 0.000000000000000000, 0.000000000000000000, 3.000000000000000000 ) ) ;
#257 = VECTOR ( 'NONE', #21, 1000.000000000000000 ) ;
#258 = CIRCLE ( 'NONE', #133, 0.2000000000000000944 ) ;
#259 = ORIENTED_EDGE ( 'NONE', *, *, #184, .F. ) ;
#260 = VERTEX_POINT ( 'NONE', #266 ) ;
#261 = ORIENTED_EDGE ( 'NONE', *, *, #24, .F. ) ;
#262 = CIRCLE ( 'NONE', #131, 5.000000000000000000 ) ;
#263 = EDGE_LOOP ( 'NONE', ( #122, #188 ) ) ;
#264 = EDGE_CURVE ( 'NONE', #303, #149, #205, .T. ) ;
#265 = CARTESIAN_POINT ( 'NONE',  ( -2.600000000000000089, 0.000000000000000000, 318.0000000000000000 ) ) ;
#266 = CARTESIAN_POINT ( 'NONE',  ( 2.799999999999999822, 0.000000000000000000, 2.999999999999990674 ) ) ;
#267 = CARTESIAN_POINT ( 'NONE',  ( 2.600000000000000089, 3.184081677783118191E-16, 3.199999999999980638 ) ) ;
#268 = EDGE_CURVE ( 'NONE', #241, #235, #243, .T. ) ;
#269 = CIRCLE ( 'NONE', #217, 2.799999999999999822 ) ;
#270 = LINE ( 'NONE', #178, #274 ) ;
#271 = DIRECTION ( 'NONE',  ( -1.000000000000000000, 0.000000000000000000, 0.000000000000000000 ) ) ;
#272 = ADVANCED_FACE ( 'NONE', ( #152 ), #29, .T. ) ;
#273 = DIRECTION ( 'NONE',  ( 0.000000000000000000, 0.000000000000000000, 1.000000000000000000 ) ) ;
#274 = VECTOR ( 'NONE', #13, 1000.000000000000000 ) ;
#275 = COORDINATED_UNIVERSAL_TIME_OFFSET ( 1, 0, .AHEAD. ) ;
#276 = APPLICATION_PROTOCOL_DEFINITION ( 'international standard', 'config_control_design', 1994, #171 ) ;
#277 = SHAPE_DEFINITION_REPRESENTATION ( #88, #94 ) ;
#278 = EDGE_CURVE ( 'NONE', #92, #40, #239, .T. ) ;
#279 = APPROVAL_ROLE ( '' ) ;
#280 = VERTEX_POINT ( 'NONE', #12 ) ;
#281 = DATE_AND_TIME ( #41, #206 ) ;
#282 = LINE ( 'NONE', #97, #208 ) ;
#283 = EDGE_CURVE ( 'NONE', #241, #260, #258, .T. ) ;
#284 = AXIS2_PLACEMENT_3D ( 'NONE', #157, #53, #140 ) ;
#285 = APPROVAL_PERSON_ORGANIZATION ( #186, #33, #279 ) ;
#286 = EDGE_CURVE ( 'NONE', #149, #303, #119, .T. ) ;
#287 = ORIENTED_EDGE ( 'NONE', *, *, #6, .T. ) ;
#288 = CC_DESIGN_PERSON_AND_ORGANIZATION_ASSIGNMENT ( #230, #85, ( #200 ) ) ;
#289 = CARTESIAN_POINT ( 'NONE',  ( 0.000000000000000000, 0.000000000000000000, 3.199999999999980638 ) ) ;
#290 = PLANE ( 'NONE',  #47 ) ;
#291 = PLANE ( 'NONE',  #173 ) ;
#292 = DIRECTION ( 'NONE',  ( -0.000000000000000000, -0.000000000000000000, -1.000000000000000000 ) ) ;
#293 = TOROIDAL_SURFACE ( 'NONE', #87, 2.799999999999999822, 0.2000000000000000111 ) ;
#294 = SECURITY_CLASSIFICATION ( '', '', #232 ) ;
#295 = FACE_OUTER_BOUND ( 'NONE', #166, .T. ) ;
#296 = DIRECTION ( 'NONE',  ( 0.000000000000000000, 0.000000000000000000, 1.000000000000000000 ) ) ;
#297 = DIRECTION ( 'NONE',  ( 1.000000000000000000, 0.000000000000000000, 0.000000000000000000 ) ) ;
#298 = AXIS2_PLACEMENT_3D ( 'NONE', #203, #197, #32 ) ;
#299 = AXIS2_PLACEMENT_3D ( 'NONE', #109, #244, #271 ) ;
#300 = APPROVAL_ROLE ( '' ) ;
#301 = PERSON_AND_ORGANIZATION_ROLE ( 'design_supplier' ) ;
#302 = MECHANICAL_CONTEXT ( 'NONE', #156, 'mechanical' ) ;
#303 = VERTEX_POINT ( 'NONE', #219 ) ;
#304 = AXIS2_PLACEMENT_3D ( 'NONE', #289, #273, #55 ) ;
#305 = CARTESIAN_POINT ( 'NONE',  ( 0.000000000000000000, 0.000000000000000000, 0.000000000000000000 ) ) ;
#306 = CARTESIAN_POINT ( 'NONE',  ( 0.000000000000000000, 0.000000000000000000, 3.199999999999980638 ) ) ;
#307 = ORIENTED_EDGE ( 'NONE', *, *, #245, .F. ) ;
ENDSEC;
END-ISO-10303-21;
