ISO-10303-21;
HEADER;
FILE_DESCRIPTION (( 'STEP AP203' ),
    '1' );
FILE_NAME ('91e8.STEP',
    '2022-07-07T10:41:14',
    ( '' ),
    ( '' ),
    'SwSTEP 2.0',
    'SolidWorks 2019',
    '' );
FILE_SCHEMA (( 'CONFIG_CONTROL_DESIGN' ));
ENDSEC;

DATA;
#1 = APPROVAL_PERSON_ORGANIZATION ( #17, #68, #232 ) ;
#2 = DIRECTION ( 'NONE',  ( 1.000000000000000000, 0.000000000000000000, 0.000000000000000000 ) ) ;
#3 = APPROVAL_ROLE ( '' ) ;
#4 = VERTEX_POINT ( 'NONE', #64 ) ;
#5 = APPROVAL_STATUS ( 'not_yet_approved' ) ;
#6 = EDGE_LOOP ( 'NONE', ( #35, #61, #10, #104 ) ) ;
#7 = DIRECTION ( 'NONE',  ( -0.000000000000000000, -0.000000000000000000, -1.000000000000000000 ) ) ;
#8 = DIRECTION ( 'NONE',  ( -0.000000000000000000, -0.000000000000000000, -1.000000000000000000 ) ) ;
#9 = ORIENTED_EDGE ( 'NONE', *, *, #122, .F. ) ;
#10 = ORIENTED_EDGE ( 'NONE', *, *, #172, .F. ) ;
#11 = ADVANCED_FACE ( 'NONE', ( #124 ), #109, .T. ) ;
#12 = DIRECTION ( 'NONE',  ( 1.224646799147353207E-16, 1.000000000000000000, -0.000000000000000000 ) ) ;
#13 = CIRCLE ( 'NONE', #94, 0.5500000000000000444 ) ;
#14 = DIRECTION ( 'NONE',  ( 0.000000000000000000, 0.000000000000000000, 1.000000000000000000 ) ) ;
#15 = ORIENTED_EDGE ( 'NONE', *, *, #153, .F. ) ;
#16 = FACE_OUTER_BOUND ( 'NONE', #185, .T. ) ;
#17 = PERSON_AND_ORGANIZATION ( #239, #59 ) ;
#18 = FACE_OUTER_BOUND ( 'NONE', #6, .T. ) ;
#19 = EDGE_CURVE ( 'NONE', #57, #248, #286, .T. ) ;
#20 = DATE_AND_TIME ( #162, #293 ) ;
#21 = ADVANCED_FACE ( 'NONE', ( #87 ), #267, .T. ) ;
#22 = APPROVAL ( #258, 'NEURÈENÝ' ) ;
#23 = APPLICATION_CONTEXT ( 'configuration controlled 3d designs of mechanical parts and assemblies' ) ;
#24 = AXIS2_PLACEMENT_3D ( 'NONE', #54, #208, #245 ) ;
#25 = VERTEX_POINT ( 'NONE', #187 ) ;
#26 = CARTESIAN_POINT ( 'NONE',  ( 0.000000000000000000, 0.000000000000000000, 0.000000000000000000 ) ) ;
#27 = ORIENTED_EDGE ( 'NONE', *, *, #238, .F. ) ;
#28 = CARTESIAN_POINT ( 'NONE',  ( 0.000000000000000000, 0.000000000000000000, 0.000000000000000000 ) ) ;
#29 = DIRECTION ( 'NONE',  ( 0.000000000000000000, 0.000000000000000000, -1.000000000000000000 ) ) ;
#30 = CIRCLE ( 'NONE', #86, 1.250000000000000000 ) ;
#31 = ORIENTED_EDGE ( 'NONE', *, *, #169, .F. ) ;
#32 = CARTESIAN_POINT ( 'NONE',  ( 0.000000000000000000, 0.000000000000000000, 1.199999999999999956 ) ) ;
#33 = DIRECTION ( 'NONE',  ( 0.000000000000000000, -1.000000000000000000, 0.000000000000000000 ) ) ;
#34 = FACE_OUTER_BOUND ( 'NONE', #261, .T. ) ;
#35 = ORIENTED_EDGE ( 'NONE', *, *, #146, .F. ) ;
#36 = COORDINATED_UNIVERSAL_TIME_OFFSET ( 1, 0, .AHEAD. ) ;
#37 = CARTESIAN_POINT ( 'NONE',  ( 0.000000000000000000, 0.000000000000000000, 1.399999999999998579 ) ) ;
#38 = EDGE_CURVE ( 'NONE', #25, #255, #148, .T. ) ;
#39 = PERSON_AND_ORGANIZATION ( #239, #59 ) ;
#40 = DIRECTION ( 'NONE',  ( 0.000000000000000000, 0.000000000000000000, 1.000000000000000000 ) ) ;
#41 = APPROVAL_PERSON_ORGANIZATION ( #137, #22, #192 ) ;
#42 = CALENDAR_DATE ( 2022, 7, 7 ) ;
#43 = EDGE_CURVE ( 'NONE', #248, #57, #288, .T. ) ;
#44 = DATE_AND_TIME ( #282, #84 ) ;
#45 = APPROVAL_DATE_TIME ( #305, #22 ) ;
#46 = ADVANCED_FACE ( 'NONE', ( #34 ), #129, .F. ) ;
#47 = EDGE_CURVE ( 'NONE', #255, #134, #90, .T. ) ;
#48 = VERTEX_POINT ( 'NONE', #205 ) ;
#49 = VECTOR ( 'NONE', #285, 1000.000000000000000 ) ;
#50 = CYLINDRICAL_SURFACE ( 'NONE', #289, 0.5500000000000000444 ) ;
#51 = DIRECTION ( 'NONE',  ( 0.000000000000000000, 0.000000000000000000, 1.000000000000000000 ) ) ;
#52 = PRODUCT_DEFINITION ( 'NEZNÁMÝ', '', #260, #119 ) ;
#53 = EDGE_LOOP ( 'NONE', ( #220, #15, #263, #118 ) ) ;
#54 = CARTESIAN_POINT ( 'NONE',  ( 0.000000000000000000, 0.000000000000000000, 1.199999999999999956 ) ) ;
#55 = CARTESIAN_POINT ( 'NONE',  ( 0.000000000000000000, 0.000000000000000000, 1.399999999999998579 ) ) ;
#56 = CARTESIAN_POINT ( 'NONE',  ( 0.000000000000000000, 0.000000000000000000, 126.2000000000000028 ) ) ;
#57 = VERTEX_POINT ( 'NONE', #132 ) ;
#58 = DIRECTION ( 'NONE',  ( -0.000000000000000000, -0.000000000000000000, -1.000000000000000000 ) ) ;
#59 = ORGANIZATION ( 'NEURÈENÝ', 'NEURÈENÝ', '' ) ;
#60 = CARTESIAN_POINT ( 'NONE',  ( 0.000000000000000000, 0.000000000000000000, 1.199999999999999956 ) ) ;
#61 = ORIENTED_EDGE ( 'NONE', *, *, #114, .T. ) ;
#62 = CALENDAR_DATE ( 2022, 7, 7 ) ;
#63 = DIRECTION ( 'NONE',  ( 1.000000000000000000, 0.000000000000000000, 0.000000000000000000 ) ) ;
#64 = CARTESIAN_POINT ( 'NONE',  ( 0.7500000000000000000, 0.000000000000000000, 1.199999999999999289 ) ) ;
#65 = COORDINATED_UNIVERSAL_TIME_OFFSET ( 1, 0, .AHEAD. ) ;
#66 = DIRECTION ( 'NONE',  ( 1.000000000000000000, 0.000000000000000000, 0.000000000000000000 ) ) ;
#67 = SECURITY_CLASSIFICATION_LEVEL ( 'unclassified' ) ;
#68 = APPROVAL ( #89, 'NEURÈENÝ' ) ;
#69 = PERSON_AND_ORGANIZATION_ROLE ( 'creator' ) ;
#70 = APPROVAL_DATE_TIME ( #256, #237 ) ;
#71 = AXIS2_PLACEMENT_3D ( 'NONE', #106, #184, #277 ) ;
#72 = AXIS2_PLACEMENT_3D ( 'NONE', #265, #33, #29 ) ;
#73 = CC_DESIGN_PERSON_AND_ORGANIZATION_ASSIGNMENT ( #236, #112, ( #240 ) ) ;
#74 = CC_DESIGN_DATE_AND_TIME_ASSIGNMENT ( #144, #209, ( #240 ) ) ;
#75 =( NAMED_UNIT ( * ) SI_UNIT ( $, .STERADIAN. ) SOLID_ANGLE_UNIT ( ) );
#76 = CARTESIAN_POINT ( 'NONE',  ( 0.000000000000000000, 0.000000000000000000, 126.2000000000000028 ) ) ;
#77 = DIRECTION ( 'NONE',  ( -0.000000000000000000, -0.000000000000000000, -1.000000000000000000 ) ) ;
#78 = DIRECTION ( 'NONE',  ( 0.000000000000000000, 0.000000000000000000, 1.000000000000000000 ) ) ;
#79 = DIRECTION ( 'NONE',  ( -1.000000000000000000, 0.000000000000000000, 0.000000000000000000 ) ) ;
#80 = ORIENTED_EDGE ( 'NONE', *, *, #38, .T. ) ;
#81 = CYLINDRICAL_SURFACE ( 'NONE', #120, 1.250000000000000000 ) ;
#82 = DIRECTION ( 'NONE',  ( 1.000000000000000000, 0.000000000000000000, 0.000000000000000000 ) ) ;
#83 = DIRECTION ( 'NONE',  ( 0.000000000000000000, 0.000000000000000000, 1.000000000000000000 ) ) ;
#84 = LOCAL_TIME ( 12, 41, 14.00000000000000000, #168 ) ;
#85 = DIRECTION ( 'NONE',  ( 1.000000000000000000, 0.000000000000000000, 0.000000000000000000 ) ) ;
#86 = AXIS2_PLACEMENT_3D ( 'NONE', #268, #273, #102 ) ;
#87 = FACE_OUTER_BOUND ( 'NONE', #299, .T. ) ;
#88 = DIRECTION ( 'NONE',  ( -0.000000000000000000, -0.000000000000000000, -1.000000000000000000 ) ) ;
#89 = APPROVAL_STATUS ( 'not_yet_approved' ) ;
#90 = LINE ( 'NONE', #159, #272 ) ;
#91 = CIRCLE ( 'NONE', #24, 1.250000000000000000 ) ;
#92 = MANIFOLD_SOLID_BREP ( 'Zaoblit1', #125 ) ;
#93 = CC_DESIGN_PERSON_AND_ORGANIZATION_ASSIGNMENT ( #221, #123, ( #295 ) ) ;
#94 = AXIS2_PLACEMENT_3D ( 'NONE', #113, #179, #210 ) ;
#95 = AXIS2_PLACEMENT_3D ( 'NONE', #246, #180, #130 ) ;
#96 = ORIENTED_EDGE ( 'NONE', *, *, #43, .F. ) ;
#97 = AXIS2_PLACEMENT_3D ( 'NONE', #26, #78, #82 ) ;
#98 = EDGE_CURVE ( 'NONE', #248, #203, #224, .T. ) ;
#99 = APPLICATION_PROTOCOL_DEFINITION ( 'international standard', 'config_control_design', 1994, #23 ) ;
#100 = VERTEX_POINT ( 'NONE', #157 ) ;
#101 = ADVANCED_FACE ( 'NONE', ( #202, #16 ), #306, .T. ) ;
#102 = DIRECTION ( 'NONE',  ( 1.000000000000000000, 0.000000000000000000, 0.000000000000000000 ) ) ;
#103 = EDGE_CURVE ( 'NONE', #203, #48, #13, .T. ) ;
#104 = ORIENTED_EDGE ( 'NONE', *, *, #211, .F. ) ;
#105 = DIRECTION ( 'NONE',  ( 0.000000000000000000, 0.000000000000000000, 1.000000000000000000 ) ) ;
#106 = CARTESIAN_POINT ( 'NONE',  ( 0.000000000000000000, 0.000000000000000000, 126.2000000000000028 ) ) ;
#107 = EDGE_LOOP ( 'NONE', ( #96, #158, #214, #9 ) ) ;
#108 = DIRECTION ( 'NONE',  ( 1.000000000000000000, 0.000000000000000000, -0.000000000000000000 ) ) ;
#109 = CYLINDRICAL_SURFACE ( 'NONE', #231, 0.5500000000000000444 ) ;
#110 = LOCAL_TIME ( 12, 41, 14.00000000000000000, #36 ) ;
#111 = CARTESIAN_POINT ( 'NONE',  ( 0.000000000000000000, 0.000000000000000000, 1.199999999999999956 ) ) ;
#112 = PERSON_AND_ORGANIZATION_ROLE ( 'classification_officer' ) ;
#113 = CARTESIAN_POINT ( 'NONE',  ( 0.000000000000000000, 0.000000000000000000, 1.399999999999998579 ) ) ;
#114 = EDGE_CURVE ( 'NONE', #48, #222, #264, .T. ) ;
#115 = CIRCLE ( 'NONE', #170, 0.7500000000000000000 ) ;
#116 = PERSON_AND_ORGANIZATION_ROLE ( 'design_supplier' ) ;
#117 = CC_DESIGN_PERSON_AND_ORGANIZATION_ASSIGNMENT ( #39, #284, ( #52 ) ) ;
#118 = ORIENTED_EDGE ( 'NONE', *, *, #270, .T. ) ;
#119 = DESIGN_CONTEXT ( 'detailed design', #143, 'design' ) ;
#120 = AXIS2_PLACEMENT_3D ( 'NONE', #300, #275, #254 ) ;
#121 = PRODUCT_RELATED_PRODUCT_CATEGORY ( 'detail', '', ( #295 ) ) ;
#122 = EDGE_CURVE ( 'NONE', #57, #48, #257, .T. ) ;
#123 = PERSON_AND_ORGANIZATION_ROLE ( 'design_owner' ) ;
#124 = FACE_OUTER_BOUND ( 'NONE', #230, .T. ) ;
#125 = CLOSED_SHELL ( 'NONE', ( #197, #291, #136, #171, #101, #46, #11, #21, #307 ) ) ;
#126 = DIRECTION ( 'NONE',  ( 0.000000000000000000, 0.000000000000000000, 1.000000000000000000 ) ) ;
#127 = EDGE_LOOP ( 'NONE', ( #269, #155 ) ) ;
#128 = AXIS2_PLACEMENT_3D ( 'NONE', #186, #279, #63 ) ;
#129 = PLANE ( 'NONE',  #156 ) ;
#130 = DIRECTION ( 'NONE',  ( 1.000000000000000000, 0.000000000000000000, 0.000000000000000000 ) ) ;
#131 = ORIENTED_EDGE ( 'NONE', *, *, #47, .F. ) ;
#132 = CARTESIAN_POINT ( 'NONE',  ( -0.5500000000000000444, 0.000000000000000000, 126.2000000000000028 ) ) ;
#133 = CARTESIAN_POINT ( 'NONE',  ( 0.000000000000000000, 0.000000000000000000, 126.2000000000000028 ) ) ;
#134 = VERTEX_POINT ( 'NONE', #190 ) ;
#135 = EDGE_LOOP ( 'NONE', ( #274, #294, #244, #131 ) ) ;
#136 = ADVANCED_FACE ( 'NONE', ( #163 ), #81, .T. ) ;
#137 = PERSON_AND_ORGANIZATION ( #239, #59 ) ;
#138 = FACE_OUTER_BOUND ( 'NONE', #53, .T. ) ;
#139 = CC_DESIGN_PERSON_AND_ORGANIZATION_ASSIGNMENT ( #234, #69, ( #260 ) ) ;
#140 = DATE_TIME_ROLE ( 'creation_date' ) ;
#141 = APPROVAL_PERSON_ORGANIZATION ( #219, #237, #3 ) ;
#142 = DIRECTION ( 'NONE',  ( -1.000000000000000000, 1.224646799147353454E-16, 0.000000000000000000 ) ) ;
#143 = APPLICATION_CONTEXT ( 'configuration controlled 3d designs of mechanical parts and assemblies' ) ;
#144 = DATE_AND_TIME ( #167, #110 ) ;
#145 = COORDINATED_UNIVERSAL_TIME_OFFSET ( 1, 0, .AHEAD. ) ;
#146 = EDGE_CURVE ( 'NONE', #48, #203, #223, .T. ) ;
#147 = CC_DESIGN_APPROVAL ( #237, ( #52 ) ) ;
#148 = CIRCLE ( 'NONE', #242, 1.250000000000000000 ) ;
#149 = UNCERTAINTY_MEASURE_WITH_UNIT (LENGTH_MEASURE( 1.000000000000000082E-05 ), #292, 'distance_accuracy_value', 'NONE');
#150 = CC_DESIGN_APPROVAL ( #22, ( #240 ) ) ;
#151 = FACE_OUTER_BOUND ( 'NONE', #226, .T. ) ;
#152 = DIRECTION ( 'NONE',  ( 1.000000000000000000, 0.000000000000000000, 0.000000000000000000 ) ) ;
#153 = EDGE_CURVE ( 'NONE', #255, #25, #91, .T. ) ;
#154 = MECHANICAL_CONTEXT ( 'NONE', #23, 'mechanical' ) ;
#155 = ORIENTED_EDGE ( 'NONE', *, *, #169, .T. ) ;
#156 = AXIS2_PLACEMENT_3D ( 'NONE', #28, #105, #108 ) ;
#157 = CARTESIAN_POINT ( 'NONE',  ( 1.250000000000000000, 1.530808498934191571E-16, 0.000000000000000000 ) ) ;
#158 = ORIENTED_EDGE ( 'NONE', *, *, #98, .T. ) ;
#159 = CARTESIAN_POINT ( 'NONE',  ( -1.250000000000000000, 0.000000000000000000, 1.199999999999999956 ) ) ;
#160 = CARTESIAN_POINT ( 'NONE',  ( 0.5500000000000000444, 6.735557395310442516E-17, 126.2000000000000028 ) ) ;
#161 = DIRECTION ( 'NONE',  ( 0.000000000000000000, 0.000000000000000000, 1.000000000000000000 ) ) ;
#162 = CALENDAR_DATE ( 2022, 7, 7 ) ;
#163 = FACE_OUTER_BOUND ( 'NONE', #135, .T. ) ;
#164 = CARTESIAN_POINT ( 'NONE',  ( 0.000000000000000000, 0.000000000000000000, 126.2000000000000028 ) ) ;
#165 = APPROVAL_DATE_TIME ( #20, #68 ) ;
#166 = CARTESIAN_POINT ( 'NONE',  ( 1.250000000000000000, 1.530808498934191571E-16, 1.199999999999999956 ) ) ;
#167 = CALENDAR_DATE ( 2022, 7, 7 ) ;
#168 = COORDINATED_UNIVERSAL_TIME_OFFSET ( 1, 0, .AHEAD. ) ;
#169 = EDGE_CURVE ( 'NONE', #222, #4, #262, .T. ) ;
#170 = AXIS2_PLACEMENT_3D ( 'NONE', #188, #283, #66 ) ;
#171 = ADVANCED_FACE ( 'NONE', ( #138 ), #233, .T. ) ;
#172 = EDGE_CURVE ( 'NONE', #4, #222, #115, .T. ) ;
#173 = AXIS2_PLACEMENT_3D ( 'NONE', #111, #88, #303 ) ;
#174 = AXIS2_PLACEMENT_3D ( 'NONE', #183, #12, #142 ) ;
#175 = CARTESIAN_POINT ( 'NONE',  ( 0.5500000000000000444, 6.735557395310442516E-17, 1.399999999999998579 ) ) ;
#176 = CC_DESIGN_APPROVAL ( #68, ( #260 ) ) ;
#177 = CARTESIAN_POINT ( 'NONE',  ( -1.250000000000000000, 0.000000000000000000, 1.199999999999999956 ) ) ;
#178 = DIRECTION ( 'NONE',  ( -0.000000000000000000, -0.000000000000000000, -1.000000000000000000 ) ) ;
#179 = DIRECTION ( 'NONE',  ( 0.000000000000000000, 0.000000000000000000, 1.000000000000000000 ) ) ;
#180 = DIRECTION ( 'NONE',  ( 0.000000000000000000, 0.000000000000000000, 1.000000000000000000 ) ) ;
#181 = ORIENTED_EDGE ( 'NONE', *, *, #153, .T. ) ;
#182 = VECTOR ( 'NONE', #58, 1000.000000000000000 ) ;
#183 = CARTESIAN_POINT ( 'NONE',  ( -0.7500000000000000000, 9.184850993605149670E-17, 1.399999999999998579 ) ) ;
#184 = DIRECTION ( 'NONE',  ( 0.000000000000000000, 0.000000000000000000, 1.000000000000000000 ) ) ;
#185 = EDGE_LOOP ( 'NONE', ( #181, #80 ) ) ;
#186 = CARTESIAN_POINT ( 'NONE',  ( 0.000000000000000000, 0.000000000000000000, 1.199999999999999956 ) ) ;
#187 = CARTESIAN_POINT ( 'NONE',  ( 1.250000000000000000, 1.530808498934191571E-16, 1.199999999999999956 ) ) ;
#188 = CARTESIAN_POINT ( 'NONE',  ( 0.000000000000000000, 0.000000000000000000, 1.199999999999999956 ) ) ;
#189 = SHAPE_DEFINITION_REPRESENTATION ( #280, #191 ) ;
#190 = CARTESIAN_POINT ( 'NONE',  ( -1.250000000000000000, 0.000000000000000000, 0.000000000000000000 ) ) ;
#191 = ADVANCED_BREP_SHAPE_REPRESENTATION ( '91e8', ( #92, #97 ), #196 ) ;
#192 = APPROVAL_ROLE ( '' ) ;
#193 = CC_DESIGN_PERSON_AND_ORGANIZATION_ASSIGNMENT ( #253, #116, ( #260 ) ) ;
#194 = CC_DESIGN_DATE_AND_TIME_ASSIGNMENT ( #44, #140, ( #52 ) ) ;
#195 = EDGE_CURVE ( 'NONE', #25, #100, #235, .T. ) ;
#196 =( GEOMETRIC_REPRESENTATION_CONTEXT ( 3 ) GLOBAL_UNCERTAINTY_ASSIGNED_CONTEXT ( ( #149 ) ) GLOBAL_UNIT_ASSIGNED_CONTEXT ( ( #292, #276, #75 ) ) REPRESENTATION_CONTEXT ( 'NONE', 'WORKASPACE' ) );
#197 = ADVANCED_FACE ( 'NONE', ( #18 ), #218, .F. ) ;
#198 = DIRECTION ( 'NONE',  ( 1.000000000000000000, 0.000000000000000000, 0.000000000000000000 ) ) ;
#199 = ORIENTED_EDGE ( 'NONE', *, *, #270, .F. ) ;
#200 = AXIS2_PLACEMENT_3D ( 'NONE', #225, #126, #2 ) ;
#201 = ORIENTED_EDGE ( 'NONE', *, *, #122, .T. ) ;
#202 = FACE_BOUND ( 'NONE', #127, .T. ) ;
#203 = VERTEX_POINT ( 'NONE', #175 ) ;
#204 = ORIENTED_EDGE ( 'NONE', *, *, #211, .T. ) ;
#205 = CARTESIAN_POINT ( 'NONE',  ( -0.5500000000000000444, 0.000000000000000000, 1.399999999999998579 ) ) ;
#206 = DIRECTION ( 'NONE',  ( 1.000000000000000000, 0.000000000000000000, 0.000000000000000000 ) ) ;
#207 = AXIS2_PLACEMENT_3D ( 'NONE', #37, #271, #85 ) ;
#208 = DIRECTION ( 'NONE',  ( 0.000000000000000000, 0.000000000000000000, 1.000000000000000000 ) ) ;
#209 = DATE_TIME_ROLE ( 'classification_date' ) ;
#210 = DIRECTION ( 'NONE',  ( 1.000000000000000000, 0.000000000000000000, 0.000000000000000000 ) ) ;
#211 = EDGE_CURVE ( 'NONE', #203, #4, #301, .T. ) ;
#212 = AXIS2_PLACEMENT_3D ( 'NONE', #56, #83, #206 ) ;
#213 = VECTOR ( 'NONE', #77, 1000.000000000000000 ) ;
#214 = ORIENTED_EDGE ( 'NONE', *, *, #103, .T. ) ;
#215 = CC_DESIGN_SECURITY_CLASSIFICATION ( #240, ( #260 ) ) ;
#216 = AXIS2_PLACEMENT_3D ( 'NONE', #32, #40, #228 ) ;
#217 = CIRCLE ( 'NONE', #200, 1.250000000000000000 ) ;
#218 = TOROIDAL_SURFACE ( 'NONE', #95, 0.7500000000000000000, 0.2000000000000000111 ) ;
#219 = PERSON_AND_ORGANIZATION ( #239, #59 ) ;
#220 = ORIENTED_EDGE ( 'NONE', *, *, #195, .F. ) ;
#221 = PERSON_AND_ORGANIZATION ( #239, #59 ) ;
#222 = VERTEX_POINT ( 'NONE', #251 ) ;
#223 = CIRCLE ( 'NONE', #207, 0.5500000000000000444 ) ;
#224 = LINE ( 'NONE', #250, #182 ) ;
#225 = CARTESIAN_POINT ( 'NONE',  ( 0.000000000000000000, 0.000000000000000000, 0.000000000000000000 ) ) ;
#226 = EDGE_LOOP ( 'NONE', ( #296, #281, #204, #31 ) ) ;
#227 = ORIENTED_EDGE ( 'NONE', *, *, #19, .F. ) ;
#228 = DIRECTION ( 'NONE',  ( 1.000000000000000000, 0.000000000000000000, -0.000000000000000000 ) ) ;
#229 = DIRECTION ( 'NONE',  ( -1.000000000000000000, 0.000000000000000000, 0.000000000000000000 ) ) ;
#230 = EDGE_LOOP ( 'NONE', ( #247, #227, #201, #241 ) ) ;
#231 = AXIS2_PLACEMENT_3D ( 'NONE', #76, #178, #79 ) ;
#232 = APPROVAL_ROLE ( '' ) ;
#233 = CYLINDRICAL_SURFACE ( 'NONE', #173, 1.250000000000000000 ) ;
#234 = PERSON_AND_ORGANIZATION ( #239, #59 ) ;
#235 = LINE ( 'NONE', #166, #49 ) ;
#236 = PERSON_AND_ORGANIZATION ( #239, #59 ) ;
#237 = APPROVAL ( #5, 'NEURÈENÝ' ) ;
#238 = EDGE_CURVE ( 'NONE', #100, #134, #30, .T. ) ;
#239 = PERSON ( 'NEURÈENÝ', 'NEURÈENÝ', 'NEURÈENÝ', ('NEURÈENÝ'), ('NEURÈENÝ'), ('NEURÈENÝ') ) ;
#240 = SECURITY_CLASSIFICATION ( '', '', #67 ) ;
#241 = ORIENTED_EDGE ( 'NONE', *, *, #146, .T. ) ;
#242 = AXIS2_PLACEMENT_3D ( 'NONE', #60, #161, #252 ) ;
#243 = FACE_OUTER_BOUND ( 'NONE', #107, .T. ) ;
#244 = ORIENTED_EDGE ( 'NONE', *, *, #238, .T. ) ;
#245 = DIRECTION ( 'NONE',  ( 1.000000000000000000, 0.000000000000000000, 0.000000000000000000 ) ) ;
#246 = CARTESIAN_POINT ( 'NONE',  ( 0.000000000000000000, 0.000000000000000000, 1.399999999999998579 ) ) ;
#247 = ORIENTED_EDGE ( 'NONE', *, *, #98, .F. ) ;
#248 = VERTEX_POINT ( 'NONE', #160 ) ;
#249 = TOROIDAL_SURFACE ( 'NONE', #266, 0.7500000000000000000, 0.2000000000000000111 ) ;
#250 = CARTESIAN_POINT ( 'NONE',  ( 0.5500000000000000444, 6.735557395310442516E-17, 126.2000000000000028 ) ) ;
#251 = CARTESIAN_POINT ( 'NONE',  ( -0.7500000000000000000, 9.184850993605149670E-17, 1.199999999999999289 ) ) ;
#252 = DIRECTION ( 'NONE',  ( 1.000000000000000000, 0.000000000000000000, 0.000000000000000000 ) ) ;
#253 = PERSON_AND_ORGANIZATION ( #239, #59 ) ;
#254 = DIRECTION ( 'NONE',  ( -1.000000000000000000, 0.000000000000000000, 0.000000000000000000 ) ) ;
#255 = VERTEX_POINT ( 'NONE', #177 ) ;
#256 = DATE_AND_TIME ( #62, #278 ) ;
#257 = LINE ( 'NONE', #297, #213 ) ;
#258 = APPROVAL_STATUS ( 'not_yet_approved' ) ;
#259 = COORDINATED_UNIVERSAL_TIME_OFFSET ( 1, 0, .AHEAD. ) ;
#260 = PRODUCT_DEFINITION_FORMATION_WITH_SPECIFIED_SOURCE ( 'LIBOVOLNÝ', '', #295, .NOT_KNOWN. ) ;
#261 = EDGE_LOOP ( 'NONE', ( #199, #27 ) ) ;
#262 = CIRCLE ( 'NONE', #128, 0.7500000000000000000 ) ;
#263 = ORIENTED_EDGE ( 'NONE', *, *, #47, .T. ) ;
#264 = CIRCLE ( 'NONE', #174, 0.1999999999999999833 ) ;
#265 = CARTESIAN_POINT ( 'NONE',  ( 0.7500000000000000000, 0.000000000000000000, 1.399999999999998579 ) ) ;
#266 = AXIS2_PLACEMENT_3D ( 'NONE', #55, #14, #198 ) ;
#267 = PLANE ( 'NONE',  #71 ) ;
#268 = CARTESIAN_POINT ( 'NONE',  ( 0.000000000000000000, 0.000000000000000000, 0.000000000000000000 ) ) ;
#269 = ORIENTED_EDGE ( 'NONE', *, *, #172, .T. ) ;
#270 = EDGE_CURVE ( 'NONE', #134, #100, #217, .T. ) ;
#271 = DIRECTION ( 'NONE',  ( 0.000000000000000000, 0.000000000000000000, 1.000000000000000000 ) ) ;
#272 = VECTOR ( 'NONE', #7, 1000.000000000000000 ) ;
#273 = DIRECTION ( 'NONE',  ( 0.000000000000000000, 0.000000000000000000, 1.000000000000000000 ) ) ;
#274 = ORIENTED_EDGE ( 'NONE', *, *, #38, .F. ) ;
#275 = DIRECTION ( 'NONE',  ( -0.000000000000000000, -0.000000000000000000, -1.000000000000000000 ) ) ;
#276 =( NAMED_UNIT ( * ) PLANE_ANGLE_UNIT ( ) SI_UNIT ( $, .RADIAN. ) );
#277 = DIRECTION ( 'NONE',  ( 1.000000000000000000, 0.000000000000000000, -0.000000000000000000 ) ) ;
#278 = LOCAL_TIME ( 12, 41, 14.00000000000000000, #65 ) ;
#279 = DIRECTION ( 'NONE',  ( -0.000000000000000000, -0.000000000000000000, -1.000000000000000000 ) ) ;
#280 = PRODUCT_DEFINITION_SHAPE ( 'NONE', 'NONE',  #52 ) ;
#281 = ORIENTED_EDGE ( 'NONE', *, *, #103, .F. ) ;
#282 = CALENDAR_DATE ( 2022, 7, 7 ) ;
#283 = DIRECTION ( 'NONE',  ( -0.000000000000000000, -0.000000000000000000, -1.000000000000000000 ) ) ;
#284 = PERSON_AND_ORGANIZATION_ROLE ( 'creator' ) ;
#285 = DIRECTION ( 'NONE',  ( -0.000000000000000000, -0.000000000000000000, -1.000000000000000000 ) ) ;
#286 = CIRCLE ( 'NONE', #212, 0.5500000000000000444 ) ;
#287 = LOCAL_TIME ( 12, 41, 14.00000000000000000, #145 ) ;
#288 = CIRCLE ( 'NONE', #298, 0.5500000000000000444 ) ;
#289 = AXIS2_PLACEMENT_3D ( 'NONE', #133, #8, #229 ) ;
#290 = APPLICATION_PROTOCOL_DEFINITION ( 'international standard', 'config_control_design', 1994, #143 ) ;
#291 = ADVANCED_FACE ( 'NONE', ( #243 ), #50, .T. ) ;
#292 =( LENGTH_UNIT ( ) NAMED_UNIT ( * ) SI_UNIT ( .MILLI., .METRE. ) );
#293 = LOCAL_TIME ( 12, 41, 14.00000000000000000, #259 ) ;
#294 = ORIENTED_EDGE ( 'NONE', *, *, #195, .T. ) ;
#295 = PRODUCT ( '91e8', '91e8', '', ( #154 ) ) ;
#296 = ORIENTED_EDGE ( 'NONE', *, *, #114, .F. ) ;
#297 = CARTESIAN_POINT ( 'NONE',  ( -0.5500000000000000444, 0.000000000000000000, 126.2000000000000028 ) ) ;
#298 = AXIS2_PLACEMENT_3D ( 'NONE', #164, #51, #152 ) ;
#299 = EDGE_LOOP ( 'NONE', ( #304, #302 ) ) ;
#300 = CARTESIAN_POINT ( 'NONE',  ( 0.000000000000000000, 0.000000000000000000, 1.199999999999999956 ) ) ;
#301 = CIRCLE ( 'NONE', #72, 0.2000000000000000944 ) ;
#302 = ORIENTED_EDGE ( 'NONE', *, *, #43, .T. ) ;
#303 = DIRECTION ( 'NONE',  ( -1.000000000000000000, 0.000000000000000000, 0.000000000000000000 ) ) ;
#304 = ORIENTED_EDGE ( 'NONE', *, *, #19, .T. ) ;
#305 = DATE_AND_TIME ( #42, #287 ) ;
#306 = PLANE ( 'NONE',  #216 ) ;
#307 = ADVANCED_FACE ( 'NONE', ( #151 ), #249, .F. ) ;
ENDSEC;
END-ISO-10303-21;
