ISO-10303-21;
HEADER;
FILE_DESCRIPTION (( 'STEP AP203' ),
    '1' );
FILE_NAME ('8e71.STEP',
    '2022-07-07T09:37:22',
    ( '' ),
    ( '' ),
    'SwSTEP 2.0',
    'SolidWorks 2019',
    '' );
FILE_SCHEMA (( 'CONFIG_CONTROL_DESIGN' ));
ENDSEC;

DATA;
#1 = CARTESIAN_POINT ( 'NONE',  ( 0.000000000000000000, 0.000000000000000000, 0.000000000000000000 ) ) ;
#2 =( NAMED_UNIT ( * ) SI_UNIT ( $, .STERADIAN. ) SOLID_ANGLE_UNIT ( ) );
#3 = CC_DESIGN_PERSON_AND_ORGANIZATION_ASSIGNMENT ( #28, #32, ( #222 ) ) ;
#4 = LOCAL_TIME ( 11, 37, 22.00000000000000000, #139 ) ;
#5 = PERSON_AND_ORGANIZATION ( #151, #94 ) ;
#6 = CC_DESIGN_SECURITY_CLASSIFICATION ( #76, ( #222 ) ) ;
#7 = COORDINATED_UNIVERSAL_TIME_OFFSET ( 1, 0, .AHEAD. ) ;
#8 = DIRECTION ( 'NONE',  ( 1.000000000000000000, 0.000000000000000000, 0.000000000000000000 ) ) ;
#9 = ADVANCED_FACE ( 'NONE', ( #67 ), #84, .T. ) ;
#10 = CARTESIAN_POINT ( 'NONE',  ( 11.00000000000000000, 1.347111479062088405E-15, 7.000000000000000000 ) ) ;
#11 = DIRECTION ( 'NONE',  ( -1.000000000000000000, 0.000000000000000000, 0.000000000000000000 ) ) ;
#12 = DIRECTION ( 'NONE',  ( -0.000000000000000000, -0.000000000000000000, -1.000000000000000000 ) ) ;
#13 = VECTOR ( 'NONE', #80, 1000.000000000000000 ) ;
#14 = DIRECTION ( 'NONE',  ( 0.000000000000000000, 0.000000000000000000, 1.000000000000000000 ) ) ;
#15 = ORIENTED_EDGE ( 'NONE', *, *, #47, .F. ) ;
#16 = APPLICATION_CONTEXT ( 'configuration controlled 3d designs of mechanical parts and assemblies' ) ;
#17 = ORIENTED_EDGE ( 'NONE', *, *, #247, .F. ) ;
#18 = DIRECTION ( 'NONE',  ( 0.000000000000000000, 0.000000000000000000, 1.000000000000000000 ) ) ;
#19 = CARTESIAN_POINT ( 'NONE',  ( 0.000000000000000000, 0.000000000000000000, 1206.999999999999773 ) ) ;
#20 = CALENDAR_DATE ( 2022, 7, 7 ) ;
#21 = AXIS2_PLACEMENT_3D ( 'NONE', #292, #95, #78 ) ;
#22 = ORIENTED_EDGE ( 'NONE', *, *, #203, .F. ) ;
#23 = CLOSED_SHELL ( 'NONE', ( #219, #108, #215, #9, #196, #248, #258, #52, #55 ) ) ;
#24 = DIRECTION ( 'NONE',  ( 0.000000000000000000, 0.000000000000000000, 1.000000000000000000 ) ) ;
#25 = AXIS2_PLACEMENT_3D ( 'NONE', #61, #77, #173 ) ;
#26 =( NAMED_UNIT ( * ) PLANE_ANGLE_UNIT ( ) SI_UNIT ( $, .RADIAN. ) );
#27 = APPROVAL ( #220, 'NEURÈENÝ' ) ;
#28 = PERSON_AND_ORGANIZATION ( #151, #94 ) ;
#29 = CIRCLE ( 'NONE', #187, 0.2000000000000005107 ) ;
#30 = CC_DESIGN_APPROVAL ( #188, ( #35 ) ) ;
#31 = CARTESIAN_POINT ( 'NONE',  ( -8.200000000000001066, 1.004210375300829674E-15, 7.000000000000047962 ) ) ;
#32 = PERSON_AND_ORGANIZATION_ROLE ( 'creator' ) ;
#33 = CARTESIAN_POINT ( 'NONE',  ( 0.000000000000000000, 0.000000000000000000, 7.200000000000095213 ) ) ;
#34 = CARTESIAN_POINT ( 'NONE',  ( -8.200000000000001066, 1.004210375300829674E-15, 7.200000000000095213 ) ) ;
#35 = PRODUCT_DEFINITION ( 'NEZNÁMÝ', '', #222, #306 ) ;
#36 = DIRECTION ( 'NONE',  ( 0.000000000000000000, 0.000000000000000000, 1.000000000000000000 ) ) ;
#37 = DIRECTION ( 'NONE',  ( 1.000000000000000000, 0.000000000000000000, 0.000000000000000000 ) ) ;
#38 = ORIENTED_EDGE ( 'NONE', *, *, #93, .T. ) ;
#39 = VERTEX_POINT ( 'NONE', #260 ) ;
#40 = ORIENTED_EDGE ( 'NONE', *, *, #174, .F. ) ;
#41 = ORIENTED_EDGE ( 'NONE', *, *, #159, .T. ) ;
#42 = CC_DESIGN_PERSON_AND_ORGANIZATION_ASSIGNMENT ( #192, #118, ( #76 ) ) ;
#43 = PLANE ( 'NONE',  #296 ) ;
#44 = CARTESIAN_POINT ( 'NONE',  ( 0.000000000000000000, 0.000000000000000000, 7.200000000000095213 ) ) ;
#45 = TOROIDAL_SURFACE ( 'NONE', #144, 8.200000000000001066, 0.2000000000000000111 ) ;
#46 = DIRECTION ( 'NONE',  ( 0.000000000000000000, 0.000000000000000000, 1.000000000000000000 ) ) ;
#47 = EDGE_CURVE ( 'NONE', #213, #257, #50, .T. ) ;
#48 = APPROVAL_ROLE ( '' ) ;
#49 = DIRECTION ( 'NONE',  ( 0.000000000000000000, 0.000000000000000000, 1.000000000000000000 ) ) ;
#50 = CIRCLE ( 'NONE', #197, 8.000000000000000000 ) ;
#51 = CIRCLE ( 'NONE', #121, 11.00000000000000000 ) ;
#52 = ADVANCED_FACE ( 'NONE', ( #62 ), #43, .T. ) ;
#53 = CIRCLE ( 'NONE', #141, 8.200000000000001066 ) ;
#54 = DIRECTION ( 'NONE',  ( -0.000000000000000000, -0.000000000000000000, -1.000000000000000000 ) ) ;
#55 = ADVANCED_FACE ( 'NONE', ( #239 ), #45, .F. ) ;
#56 = CARTESIAN_POINT ( 'NONE',  ( 0.000000000000000000, 0.000000000000000000, 7.000000000000000000 ) ) ;
#57 = DIRECTION ( 'NONE',  ( -1.000000000000000000, 1.224646799147353207E-16, 0.000000000000000000 ) ) ;
#58 = DIRECTION ( 'NONE',  ( -0.000000000000000000, -0.000000000000000000, -1.000000000000000000 ) ) ;
#59 = AXIS2_PLACEMENT_3D ( 'NONE', #286, #49, #162 ) ;
#60 = ORIENTED_EDGE ( 'NONE', *, *, #299, .T. ) ;
#61 = CARTESIAN_POINT ( 'NONE',  ( 0.000000000000000000, 0.000000000000000000, 1206.999999999999773 ) ) ;
#62 = FACE_OUTER_BOUND ( 'NONE', #132, .T. ) ;
#63 = VECTOR ( 'NONE', #12, 1000.000000000000000 ) ;
#64 = DIRECTION ( 'NONE',  ( 0.000000000000000000, 0.000000000000000000, 1.000000000000000000 ) ) ;
#65 = EDGE_CURVE ( 'NONE', #303, #181, #184, .T. ) ;
#66 = APPROVAL_PERSON_ORGANIZATION ( #288, #27, #169 ) ;
#67 = FACE_OUTER_BOUND ( 'NONE', #238, .T. ) ;
#68 = DIRECTION ( 'NONE',  ( 0.000000000000000000, 0.000000000000000000, 1.000000000000000000 ) ) ;
#69 = DATE_AND_TIME ( #20, #4 ) ;
#70 = FACE_OUTER_BOUND ( 'NONE', #298, .T. ) ;
#71 = MECHANICAL_CONTEXT ( 'NONE', #230, 'mechanical' ) ;
#72 = CARTESIAN_POINT ( 'NONE',  ( -11.00000000000000000, 0.000000000000000000, 7.000000000000000000 ) ) ;
#73 = DATE_AND_TIME ( #74, #245 ) ;
#74 = CALENDAR_DATE ( 2022, 7, 7 ) ;
#75 = SECURITY_CLASSIFICATION_LEVEL ( 'unclassified' ) ;
#76 = SECURITY_CLASSIFICATION ( '', '', #75 ) ;
#77 = DIRECTION ( 'NONE',  ( 0.000000000000000000, 0.000000000000000000, 1.000000000000000000 ) ) ;
#78 = DIRECTION ( 'NONE',  ( -1.000000000000000000, 0.000000000000000000, 0.000000000000000000 ) ) ;
#79 = DIRECTION ( 'NONE',  ( 1.000000000000000000, 0.000000000000000000, 0.000000000000000000 ) ) ;
#80 = DIRECTION ( 'NONE',  ( -0.000000000000000000, -0.000000000000000000, -1.000000000000000000 ) ) ;
#81 = DIRECTION ( 'NONE',  ( 1.000000000000000000, 0.000000000000000000, 0.000000000000000000 ) ) ;
#82 = ORIENTED_EDGE ( 'NONE', *, *, #203, .T. ) ;
#83 = ORIENTED_EDGE ( 'NONE', *, *, #299, .F. ) ;
#84 = CYLINDRICAL_SURFACE ( 'NONE', #191, 11.00000000000000000 ) ;
#85 = ORIENTED_EDGE ( 'NONE', *, *, #262, .F. ) ;
#86 = AXIS2_PLACEMENT_3D ( 'NONE', #243, #24, #133 ) ;
#87 = CALENDAR_DATE ( 2022, 7, 7 ) ;
#88 = EDGE_CURVE ( 'NONE', #213, #209, #29, .T. ) ;
#89 = DIRECTION ( 'NONE',  ( 1.000000000000000000, 0.000000000000000000, -0.000000000000000000 ) ) ;
#90 = DIRECTION ( 'NONE',  ( -0.000000000000000000, -0.000000000000000000, -1.000000000000000000 ) ) ;
#91 = VECTOR ( 'NONE', #165, 1000.000000000000000 ) ;
#92 = DATE_TIME_ROLE ( 'creation_date' ) ;
#93 = EDGE_CURVE ( 'NONE', #105, #127, #226, .T. ) ;
#94 = ORGANIZATION ( 'NEURÈENÝ', 'NEURÈENÝ', '' ) ;
#95 = DIRECTION ( 'NONE',  ( -0.000000000000000000, -0.000000000000000000, -1.000000000000000000 ) ) ;
#96 = VECTOR ( 'NONE', #58, 1000.000000000000000 ) ;
#97 = CIRCLE ( 'NONE', #254, 8.000000000000000000 ) ;
#98 = DIRECTION ( 'NONE',  ( 1.000000000000000000, 0.000000000000000000, 0.000000000000000000 ) ) ;
#99 = CARTESIAN_POINT ( 'NONE',  ( 0.000000000000000000, 0.000000000000000000, 7.200000000000095213 ) ) ;
#100 = CC_DESIGN_DATE_AND_TIME_ASSIGNMENT ( #225, #194, ( #76 ) ) ;
#101 = CYLINDRICAL_SURFACE ( 'NONE', #21, 11.00000000000000000 ) ;
#102 = CARTESIAN_POINT ( 'NONE',  ( 0.000000000000000000, 0.000000000000000000, 7.000000000000000000 ) ) ;
#103 = AXIS2_PLACEMENT_3D ( 'NONE', #175, #273, #37 ) ;
#104 = ORIENTED_EDGE ( 'NONE', *, *, #47, .T. ) ;
#105 = VERTEX_POINT ( 'NONE', #255 ) ;
#106 = ORIENTED_EDGE ( 'NONE', *, *, #269, .F. ) ;
#107 = EDGE_LOOP ( 'NONE', ( #282, #280 ) ) ;
#108 = ADVANCED_FACE ( 'NONE', ( #179 ), #150, .T. ) ;
#109 = PERSON_AND_ORGANIZATION ( #151, #94 ) ;
#110 = ORIENTED_EDGE ( 'NONE', *, *, #143, .T. ) ;
#111 = PERSON_AND_ORGANIZATION ( #151, #94 ) ;
#112 = CYLINDRICAL_SURFACE ( 'NONE', #163, 8.000000000000000000 ) ;
#113 = COORDINATED_UNIVERSAL_TIME_OFFSET ( 1, 0, .AHEAD. ) ;
#114 = CALENDAR_DATE ( 2022, 7, 7 ) ;
#115 = AXIS2_PLACEMENT_3D ( 'NONE', #297, #274, #198 ) ;
#116 = PRODUCT_DEFINITION_SHAPE ( 'NONE', 'NONE',  #35 ) ;
#117 = CARTESIAN_POINT ( 'NONE',  ( 0.000000000000000000, 0.000000000000000000, 1206.999999999999773 ) ) ;
#118 = PERSON_AND_ORGANIZATION_ROLE ( 'classification_officer' ) ;
#119 = DIRECTION ( 'NONE',  ( 1.000000000000000000, 0.000000000000000000, 0.000000000000000000 ) ) ;
#120 = APPROVAL ( #284, 'NEURÈENÝ' ) ;
#121 = AXIS2_PLACEMENT_3D ( 'NONE', #229, #277, #79 ) ;
#122 = CARTESIAN_POINT ( 'NONE',  ( -8.000000000000000000, 0.000000000000000000, 1206.999999999999773 ) ) ;
#123 = CARTESIAN_POINT ( 'NONE',  ( -8.000000000000000000, 0.000000000000000000, 7.200000000000095213 ) ) ;
#124 = CARTESIAN_POINT ( 'NONE',  ( 8.200000000000001066, 0.000000000000000000, 7.000000000000047962 ) ) ;
#125 = EDGE_LOOP ( 'NONE', ( #15, #275, #180, #85 ) ) ;
#126 = AXIS2_PLACEMENT_3D ( 'NONE', #205, #54, #11 ) ;
#127 = VERTEX_POINT ( 'NONE', #294 ) ;
#128 = TOROIDAL_SURFACE ( 'NONE', #300, 8.200000000000001066, 0.2000000000000000111 ) ;
#129 = ORIENTED_EDGE ( 'NONE', *, *, #262, .T. ) ;
#130 = ORIENTED_EDGE ( 'NONE', *, *, #65, .F. ) ;
#131 = VERTEX_POINT ( 'NONE', #122 ) ;
#132 = EDGE_LOOP ( 'NONE', ( #281, #211 ) ) ;
#133 = DIRECTION ( 'NONE',  ( 1.000000000000000000, 0.000000000000000000, 0.000000000000000000 ) ) ;
#134 = ORIENTED_EDGE ( 'NONE', *, *, #183, .T. ) ;
#135 = APPROVAL_ROLE ( '' ) ;
#136 = LOCAL_TIME ( 11, 37, 22.00000000000000000, #195 ) ;
#137 = LINE ( 'NONE', #287, #91 ) ;
#138 = MANIFOLD_SOLID_BREP ( 'Zaoblit1', #23 ) ;
#139 = COORDINATED_UNIVERSAL_TIME_OFFSET ( 1, 0, .AHEAD. ) ;
#140 = EDGE_CURVE ( 'NONE', #257, #213, #221, .T. ) ;
#141 = AXIS2_PLACEMENT_3D ( 'NONE', #102, #147, #208 ) ;
#142 = CC_DESIGN_APPROVAL ( #27, ( #76 ) ) ;
#143 = EDGE_CURVE ( 'NONE', #39, #257, #178, .T. ) ;
#144 = AXIS2_PLACEMENT_3D ( 'NONE', #154, #68, #253 ) ;
#145 = PERSON_AND_ORGANIZATION ( #151, #94 ) ;
#146 = AXIS2_PLACEMENT_3D ( 'NONE', #232, #14, #81 ) ;
#147 = DIRECTION ( 'NONE',  ( -0.000000000000000000, -0.000000000000000000, -1.000000000000000000 ) ) ;
#148 = APPROVAL_DATE_TIME ( #289, #120 ) ;
#149 = FACE_OUTER_BOUND ( 'NONE', #295, .T. ) ;
#150 = CYLINDRICAL_SURFACE ( 'NONE', #126, 8.000000000000000000 ) ;
#151 = PERSON ( 'NEURÈENÝ', 'NEURÈENÝ', 'NEURÈENÝ', ('NEURÈENÝ'), ('NEURÈENÝ'), ('NEURÈENÝ') ) ;
#152 = DIRECTION ( 'NONE',  ( -0.000000000000000000, -0.000000000000000000, -1.000000000000000000 ) ) ;
#153 = ORIENTED_EDGE ( 'NONE', *, *, #143, .F. ) ;
#154 = CARTESIAN_POINT ( 'NONE',  ( 0.000000000000000000, 0.000000000000000000, 7.200000000000095213 ) ) ;
#155 = DIRECTION ( 'NONE',  ( -1.000000000000000000, 0.000000000000000000, 0.000000000000000000 ) ) ;
#156 = CIRCLE ( 'NONE', #146, 11.00000000000000000 ) ;
#157 = EDGE_LOOP ( 'NONE', ( #83, #206 ) ) ;
#158 = APPROVAL_STATUS ( 'not_yet_approved' ) ;
#159 = EDGE_CURVE ( 'NONE', #235, #209, #53, .T. ) ;
#160 = DIRECTION ( 'NONE',  ( -0.000000000000000000, -0.000000000000000000, -1.000000000000000000 ) ) ;
#161 = PLANE ( 'NONE',  #234 ) ;
#162 = DIRECTION ( 'NONE',  ( 1.000000000000000000, 0.000000000000000000, 0.000000000000000000 ) ) ;
#163 = AXIS2_PLACEMENT_3D ( 'NONE', #242, #90, #216 ) ;
#164 = PERSON_AND_ORGANIZATION ( #151, #94 ) ;
#165 = DIRECTION ( 'NONE',  ( -0.000000000000000000, -0.000000000000000000, -1.000000000000000000 ) ) ;
#166 = SHAPE_DEFINITION_REPRESENTATION ( #116, #168 ) ;
#167 = PRODUCT_RELATED_PRODUCT_CATEGORY ( 'detail', '', ( #270 ) ) ;
#168 = ADVANCED_BREP_SHAPE_REPRESENTATION ( '8e71', ( #138, #59 ), #193 ) ;
#169 = APPROVAL_ROLE ( '' ) ;
#170 = COORDINATED_UNIVERSAL_TIME_OFFSET ( 1, 0, .AHEAD. ) ;
#171 = APPROVAL_PERSON_ORGANIZATION ( #109, #120, #135 ) ;
#172 = APPROVAL_PERSON_ORGANIZATION ( #164, #188, #48 ) ;
#173 = DIRECTION ( 'NONE',  ( 1.000000000000000000, 0.000000000000000000, 0.000000000000000000 ) ) ;
#174 = EDGE_CURVE ( 'NONE', #39, #131, #199, .T. ) ;
#175 = CARTESIAN_POINT ( 'NONE',  ( 0.000000000000000000, 0.000000000000000000, 7.000000000000000000 ) ) ;
#176 = FACE_OUTER_BOUND ( 'NONE', #107, .T. ) ;
#177 = CC_DESIGN_PERSON_AND_ORGANIZATION_ASSIGNMENT ( #145, #251, ( #222 ) ) ;
#178 = LINE ( 'NONE', #231, #96 ) ;
#179 = FACE_OUTER_BOUND ( 'NONE', #210, .T. ) ;
#180 = ORIENTED_EDGE ( 'NONE', *, *, #159, .F. ) ;
#181 = VERTEX_POINT ( 'NONE', #202 ) ;
#182 = ORIENTED_EDGE ( 'NONE', *, *, #140, .F. ) ;
#183 = EDGE_CURVE ( 'NONE', #127, #181, #51, .T. ) ;
#184 = LINE ( 'NONE', #301, #13 ) ;
#185 = PERSON_AND_ORGANIZATION_ROLE ( 'creator' ) ;
#186 = CARTESIAN_POINT ( 'NONE',  ( 8.200000000000001066, 0.000000000000000000, 7.200000000000095213 ) ) ;
#187 = AXIS2_PLACEMENT_3D ( 'NONE', #34, #250, #57 ) ;
#188 = APPROVAL ( #158, 'NEURÈENÝ' ) ;
#189 = CIRCLE ( 'NONE', #305, 0.1999999999999996503 ) ;
#190 = CARTESIAN_POINT ( 'NONE',  ( 8.000000000000000000, 9.797174393178825657E-16, 7.200000000000095213 ) ) ;
#191 = AXIS2_PLACEMENT_3D ( 'NONE', #283, #160, #155 ) ;
#192 = PERSON_AND_ORGANIZATION ( #151, #94 ) ;
#193 =( GEOMETRIC_REPRESENTATION_CONTEXT ( 3 ) GLOBAL_UNCERTAINTY_ASSIGNED_CONTEXT ( ( #263 ) ) GLOBAL_UNIT_ASSIGNED_CONTEXT ( ( #268, #26, #2 ) ) REPRESENTATION_CONTEXT ( 'NONE', 'WORKASPACE' ) );
#194 = DATE_TIME_ROLE ( 'classification_date' ) ;
#195 = COORDINATED_UNIVERSAL_TIME_OFFSET ( 1, 0, .AHEAD. ) ;
#196 = ADVANCED_FACE ( 'NONE', ( #201, #176 ), #272, .T. ) ;
#197 = AXIS2_PLACEMENT_3D ( 'NONE', #44, #64, #259 ) ;
#198 = DIRECTION ( 'NONE',  ( 1.000000000000000000, 0.000000000000000000, -0.000000000000000000 ) ) ;
#199 = CIRCLE ( 'NONE', #25, 8.000000000000000000 ) ;
#200 = LOCAL_TIME ( 11, 37, 22.00000000000000000, #7 ) ;
#201 = FACE_BOUND ( 'NONE', #264, .T. ) ;
#202 = CARTESIAN_POINT ( 'NONE',  ( -11.00000000000000000, 0.000000000000000000, 0.000000000000000000 ) ) ;
#203 = EDGE_CURVE ( 'NONE', #209, #235, #207, .T. ) ;
#204 = ORIENTED_EDGE ( 'NONE', *, *, #93, .F. ) ;
#205 = CARTESIAN_POINT ( 'NONE',  ( 0.000000000000000000, 0.000000000000000000, 1206.999999999999773 ) ) ;
#206 = ORIENTED_EDGE ( 'NONE', *, *, #183, .F. ) ;
#207 = CIRCLE ( 'NONE', #267, 8.200000000000001066 ) ;
#208 = DIRECTION ( 'NONE',  ( 1.000000000000000000, 0.000000000000000000, 0.000000000000000000 ) ) ;
#209 = VERTEX_POINT ( 'NONE', #31 ) ;
#210 = EDGE_LOOP ( 'NONE', ( #40, #110, #279, #106 ) ) ;
#211 = ORIENTED_EDGE ( 'NONE', *, *, #174, .T. ) ;
#212 = DIRECTION ( 'NONE',  ( 0.000000000000000000, 0.000000000000000000, -1.000000000000000000 ) ) ;
#213 = VERTEX_POINT ( 'NONE', #123 ) ;
#214 = APPLICATION_PROTOCOL_DEFINITION ( 'international standard', 'config_control_design', 1994, #16 ) ;
#215 = ADVANCED_FACE ( 'NONE', ( #149 ), #101, .T. ) ;
#216 = DIRECTION ( 'NONE',  ( -1.000000000000000000, 0.000000000000000000, 0.000000000000000000 ) ) ;
#217 = CC_DESIGN_APPROVAL ( #120, ( #222 ) ) ;
#218 = DATE_AND_TIME ( #87, #276 ) ;
#219 = ADVANCED_FACE ( 'NONE', ( #252 ), #128, .F. ) ;
#220 = APPROVAL_STATUS ( 'not_yet_approved' ) ;
#221 = CIRCLE ( 'NONE', #266, 8.000000000000000000 ) ;
#222 = PRODUCT_DEFINITION_FORMATION_WITH_SPECIFIED_SOURCE ( 'LIBOVOLNÝ', '', #270, .NOT_KNOWN. ) ;
#223 = CC_DESIGN_PERSON_AND_ORGANIZATION_ASSIGNMENT ( #111, #285, ( #270 ) ) ;
#224 = DIRECTION ( 'NONE',  ( 0.000000000000000000, 0.000000000000000000, 1.000000000000000000 ) ) ;
#225 = DATE_AND_TIME ( #114, #200 ) ;
#226 = LINE ( 'NONE', #10, #63 ) ;
#227 = CIRCLE ( 'NONE', #86, 11.00000000000000000 ) ;
#228 = EDGE_CURVE ( 'NONE', #105, #303, #249, .T. ) ;
#229 = CARTESIAN_POINT ( 'NONE',  ( 0.000000000000000000, 0.000000000000000000, 0.000000000000000000 ) ) ;
#230 = APPLICATION_CONTEXT ( 'configuration controlled 3d designs of mechanical parts and assemblies' ) ;
#231 = CARTESIAN_POINT ( 'NONE',  ( 8.000000000000000000, 9.797174393178825657E-16, 1206.999999999999773 ) ) ;
#232 = CARTESIAN_POINT ( 'NONE',  ( 0.000000000000000000, 0.000000000000000000, 7.000000000000000000 ) ) ;
#233 = ORIENTED_EDGE ( 'NONE', *, *, #269, .T. ) ;
#234 = AXIS2_PLACEMENT_3D ( 'NONE', #1, #46, #89 ) ;
#235 = VERTEX_POINT ( 'NONE', #124 ) ;
#236 = EDGE_CURVE ( 'NONE', #303, #105, #156, .T. ) ;
#237 = ORIENTED_EDGE ( 'NONE', *, *, #65, .T. ) ;
#238 = EDGE_LOOP ( 'NONE', ( #204, #240, #237, #60 ) ) ;
#239 = FACE_OUTER_BOUND ( 'NONE', #278, .T. ) ;
#240 = ORIENTED_EDGE ( 'NONE', *, *, #236, .F. ) ;
#241 = CC_DESIGN_DATE_AND_TIME_ASSIGNMENT ( #69, #92, ( #35 ) ) ;
#242 = CARTESIAN_POINT ( 'NONE',  ( 0.000000000000000000, 0.000000000000000000, 1206.999999999999773 ) ) ;
#243 = CARTESIAN_POINT ( 'NONE',  ( 0.000000000000000000, 0.000000000000000000, 0.000000000000000000 ) ) ;
#244 = DIRECTION ( 'NONE',  ( 0.000000000000000000, -1.000000000000000000, 0.000000000000000000 ) ) ;
#245 = LOCAL_TIME ( 11, 37, 22.00000000000000000, #170 ) ;
#246 = APPLICATION_PROTOCOL_DEFINITION ( 'international standard', 'config_control_design', 1994, #230 ) ;
#247 = EDGE_CURVE ( 'NONE', #131, #39, #97, .T. ) ;
#248 = ADVANCED_FACE ( 'NONE', ( #265 ), #161, .F. ) ;
#249 = CIRCLE ( 'NONE', #103, 11.00000000000000000 ) ;
#250 = DIRECTION ( 'NONE',  ( 1.224646799147353207E-16, 1.000000000000000000, -0.000000000000000000 ) ) ;
#251 = PERSON_AND_ORGANIZATION_ROLE ( 'design_supplier' ) ;
#252 = FACE_OUTER_BOUND ( 'NONE', #125, .T. ) ;
#253 = DIRECTION ( 'NONE',  ( 1.000000000000000000, 0.000000000000000000, 0.000000000000000000 ) ) ;
#254 = AXIS2_PLACEMENT_3D ( 'NONE', #117, #224, #8 ) ;
#255 = CARTESIAN_POINT ( 'NONE',  ( 11.00000000000000000, 1.347111479062088405E-15, 7.000000000000000000 ) ) ;
#256 = DIRECTION ( 'NONE',  ( 0.000000000000000000, 0.000000000000000000, 1.000000000000000000 ) ) ;
#257 = VERTEX_POINT ( 'NONE', #190 ) ;
#258 = ADVANCED_FACE ( 'NONE', ( #70 ), #112, .T. ) ;
#259 = DIRECTION ( 'NONE',  ( 1.000000000000000000, 0.000000000000000000, 0.000000000000000000 ) ) ;
#260 = CARTESIAN_POINT ( 'NONE',  ( 8.000000000000000000, 9.797174393178825657E-16, 1206.999999999999773 ) ) ;
#261 = APPROVAL_DATE_TIME ( #218, #188 ) ;
#262 = EDGE_CURVE ( 'NONE', #257, #235, #189, .T. ) ;
#263 = UNCERTAINTY_MEASURE_WITH_UNIT (LENGTH_MEASURE( 1.000000000000000082E-05 ), #268, 'distance_accuracy_value', 'NONE');
#264 = EDGE_LOOP ( 'NONE', ( #41, #82 ) ) ;
#265 = FACE_OUTER_BOUND ( 'NONE', #157, .T. ) ;
#266 = AXIS2_PLACEMENT_3D ( 'NONE', #99, #36, #98 ) ;
#267 = AXIS2_PLACEMENT_3D ( 'NONE', #56, #152, #293 ) ;
#268 =( LENGTH_UNIT ( ) NAMED_UNIT ( * ) SI_UNIT ( .MILLI., .METRE. ) );
#269 = EDGE_CURVE ( 'NONE', #131, #213, #137, .T. ) ;
#270 = PRODUCT ( '8e71', '8e71', '', ( #71 ) ) ;
#271 = APPROVAL_DATE_TIME ( #73, #27 ) ;
#272 = PLANE ( 'NONE',  #115 ) ;
#273 = DIRECTION ( 'NONE',  ( 0.000000000000000000, 0.000000000000000000, 1.000000000000000000 ) ) ;
#274 = DIRECTION ( 'NONE',  ( 0.000000000000000000, 0.000000000000000000, 1.000000000000000000 ) ) ;
#275 = ORIENTED_EDGE ( 'NONE', *, *, #88, .T. ) ;
#276 = LOCAL_TIME ( 11, 37, 22.00000000000000000, #113 ) ;
#277 = DIRECTION ( 'NONE',  ( 0.000000000000000000, 0.000000000000000000, 1.000000000000000000 ) ) ;
#278 = EDGE_LOOP ( 'NONE', ( #302, #182, #129, #22 ) ) ;
#279 = ORIENTED_EDGE ( 'NONE', *, *, #140, .T. ) ;
#280 = ORIENTED_EDGE ( 'NONE', *, *, #228, .T. ) ;
#281 = ORIENTED_EDGE ( 'NONE', *, *, #247, .T. ) ;
#282 = ORIENTED_EDGE ( 'NONE', *, *, #236, .T. ) ;
#283 = CARTESIAN_POINT ( 'NONE',  ( 0.000000000000000000, 0.000000000000000000, 7.000000000000000000 ) ) ;
#284 = APPROVAL_STATUS ( 'not_yet_approved' ) ;
#285 = PERSON_AND_ORGANIZATION_ROLE ( 'design_owner' ) ;
#286 = CARTESIAN_POINT ( 'NONE',  ( 0.000000000000000000, 0.000000000000000000, 0.000000000000000000 ) ) ;
#287 = CARTESIAN_POINT ( 'NONE',  ( -8.000000000000000000, 0.000000000000000000, 1206.999999999999773 ) ) ;
#288 = PERSON_AND_ORGANIZATION ( #151, #94 ) ;
#289 = DATE_AND_TIME ( #291, #136 ) ;
#290 = CC_DESIGN_PERSON_AND_ORGANIZATION_ASSIGNMENT ( #5, #185, ( #35 ) ) ;
#291 = CALENDAR_DATE ( 2022, 7, 7 ) ;
#292 = CARTESIAN_POINT ( 'NONE',  ( 0.000000000000000000, 0.000000000000000000, 7.000000000000000000 ) ) ;
#293 = DIRECTION ( 'NONE',  ( 1.000000000000000000, 0.000000000000000000, 0.000000000000000000 ) ) ;
#294 = CARTESIAN_POINT ( 'NONE',  ( 11.00000000000000000, 1.347111479062088405E-15, 0.000000000000000000 ) ) ;
#295 = EDGE_LOOP ( 'NONE', ( #307, #38, #134, #130 ) ) ;
#296 = AXIS2_PLACEMENT_3D ( 'NONE', #19, #18, #304 ) ;
#297 = CARTESIAN_POINT ( 'NONE',  ( 0.000000000000000000, 0.000000000000000000, 7.000000000000000000 ) ) ;
#298 = EDGE_LOOP ( 'NONE', ( #153, #17, #233, #104 ) ) ;
#299 = EDGE_CURVE ( 'NONE', #181, #127, #227, .T. ) ;
#300 = AXIS2_PLACEMENT_3D ( 'NONE', #33, #256, #119 ) ;
#301 = CARTESIAN_POINT ( 'NONE',  ( -11.00000000000000000, 0.000000000000000000, 7.000000000000000000 ) ) ;
#302 = ORIENTED_EDGE ( 'NONE', *, *, #88, .F. ) ;
#303 = VERTEX_POINT ( 'NONE', #72 ) ;
#304 = DIRECTION ( 'NONE',  ( 1.000000000000000000, 0.000000000000000000, -0.000000000000000000 ) ) ;
#305 = AXIS2_PLACEMENT_3D ( 'NONE', #186, #244, #212 ) ;
#306 = DESIGN_CONTEXT ( 'detailed design', #16, 'design' ) ;
#307 = ORIENTED_EDGE ( 'NONE', *, *, #228, .F. ) ;
ENDSEC;
END-ISO-10303-21;
