ISO-10303-21;
HEADER;
FILE_DESCRIPTION (( 'STEP AP203' ),
    '1' );
FILE_NAME ('8caf.STEP',
    '2023-02-12T12:53:32',
    ( '' ),
    ( '' ),
    'SwSTEP 2.0',
    'SolidWorks 2019',
    '' );
FILE_SCHEMA (( 'CONFIG_CONTROL_DESIGN' ));
ENDSEC;

DATA;
#1 = LINE ( 'NONE', #123, #54 ) ;
#2 = PRODUCT_DEFINITION_FORMATION_WITH_SPECIFIED_SOURCE ( 'LIBOVOLNÝ', '', #19, .NOT_KNOWN. ) ;
#3 = LINE ( 'NONE', #26, #180 ) ;
#4 = ADVANCED_FACE ( 'NONE', ( #60, #61 ), #74, .T. ) ;
#5 = LINE ( 'NONE', #223, #238 ) ;
#6 = CARTESIAN_POINT ( 'NONE',  ( 0.000000000000000000, 0.000000000000000000, 2.000000000000000000 ) ) ;
#7 = CC_DESIGN_APPROVAL ( #21, ( #108 ) ) ;
#8 = PERSON_AND_ORGANIZATION ( #81, #229 ) ;
#9 = CARTESIAN_POINT ( 'NONE',  ( 0.000000000000000000, 0.000000000000000000, 100.0000000000000000 ) ) ;
#10 = MECHANICAL_CONTEXT ( 'NONE', #193, 'mechanical' ) ;
#11 = CIRCLE ( 'NONE', #234, 1.000000000000000000 ) ;
#12 = UNCERTAINTY_MEASURE_WITH_UNIT (LENGTH_MEASURE( 1.000000000000000082E-05 ), #145, 'distance_accuracy_value', 'NONE');
#13 = DATE_TIME_ROLE ( 'classification_date' ) ;
#14 = ORIENTED_EDGE ( 'NONE', *, *, #85, .F. ) ;
#15 = ORIENTED_EDGE ( 'NONE', *, *, #28, .T. ) ;
#16 = PERSON_AND_ORGANIZATION ( #81, #229 ) ;
#17 = CIRCLE ( 'NONE', #75, 2.000000000000000000 ) ;
#18 = CALENDAR_DATE ( 2023, 12, 2 ) ;
#19 = PRODUCT ( '8caf', '8caf', '', ( #10 ) ) ;
#20 = CYLINDRICAL_SURFACE ( 'NONE', #109, 1.000000000000000000 ) ;
#21 = APPROVAL ( #45, 'NEURÈENÝ' ) ;
#22 = CC_DESIGN_APPROVAL ( #147, ( #143 ) ) ;
#23 = DIRECTION ( 'NONE',  ( -0.000000000000000000, -0.000000000000000000, -1.000000000000000000 ) ) ;
#24 = CARTESIAN_POINT ( 'NONE',  ( 2.000000000000000000, 2.449293598294706414E-16, 2.000000000000000000 ) ) ;
#25 = PRODUCT_RELATED_PRODUCT_CATEGORY ( 'detail', '', ( #19 ) ) ;
#26 = CARTESIAN_POINT ( 'NONE',  ( -2.000000000000000000, 0.000000000000000000, 2.000000000000000000 ) ) ;
#27 = LOCAL_TIME ( 13, 53, 32.00000000000000000, #202 ) ;
#28 = EDGE_CURVE ( 'NONE', #179, #220, #3, .T. ) ;
#29 = CARTESIAN_POINT ( 'NONE',  ( 0.000000000000000000, 0.000000000000000000, 2.000000000000000000 ) ) ;
#30 = AXIS2_PLACEMENT_3D ( 'NONE', #121, #226, #161 ) ;
#31 = FACE_OUTER_BOUND ( 'NONE', #182, .T. ) ;
#32 = DIRECTION ( 'NONE',  ( -0.000000000000000000, -0.000000000000000000, -1.000000000000000000 ) ) ;
#33 = DATE_AND_TIME ( #18, #27 ) ;
#34 = PERSON_AND_ORGANIZATION ( #81, #229 ) ;
#35 = EDGE_LOOP ( 'NONE', ( #205, #115 ) ) ;
#36 = CC_DESIGN_DATE_AND_TIME_ASSIGNMENT ( #151, #50, ( #108 ) ) ;
#37 = CALENDAR_DATE ( 2023, 12, 2 ) ;
#38 = ORIENTED_EDGE ( 'NONE', *, *, #136, .F. ) ;
#39 = CALENDAR_DATE ( 2023, 12, 2 ) ;
#40 = DIRECTION ( 'NONE',  ( 0.000000000000000000, 0.000000000000000000, 1.000000000000000000 ) ) ;
#41 = ORIENTED_EDGE ( 'NONE', *, *, #246, .T. ) ;
#42 = EDGE_LOOP ( 'NONE', ( #216, #114, #144, #245 ) ) ;
#43 = EDGE_CURVE ( 'NONE', #239, #179, #59, .T. ) ;
#44 = DIRECTION ( 'NONE',  ( 0.000000000000000000, 0.000000000000000000, 1.000000000000000000 ) ) ;
#45 = APPROVAL_STATUS ( 'not_yet_approved' ) ;
#46 =( GEOMETRIC_REPRESENTATION_CONTEXT ( 3 ) GLOBAL_UNCERTAINTY_ASSIGNED_CONTEXT ( ( #12 ) ) GLOBAL_UNIT_ASSIGNED_CONTEXT ( ( #145, #110, #232 ) ) REPRESENTATION_CONTEXT ( 'NONE', 'WORKASPACE' ) );
#47 = CC_DESIGN_PERSON_AND_ORGANIZATION_ASSIGNMENT ( #160, #95, ( #108 ) ) ;
#48 = CARTESIAN_POINT ( 'NONE',  ( 0.000000000000000000, 0.000000000000000000, 0.000000000000000000 ) ) ;
#49 = CIRCLE ( 'NONE', #252, 2.000000000000000000 ) ;
#50 = DATE_TIME_ROLE ( 'creation_date' ) ;
#51 = PERSON_AND_ORGANIZATION ( #81, #229 ) ;
#52 = APPROVAL_ROLE ( '' ) ;
#53 = COORDINATED_UNIVERSAL_TIME_OFFSET ( 1, 0, .AHEAD. ) ;
#54 = VECTOR ( 'NONE', #58, 1000.000000000000000 ) ;
#55 = EDGE_CURVE ( 'NONE', #72, #199, #1, .T. ) ;
#56 = VERTEX_POINT ( 'NONE', #185 ) ;
#57 = ORIENTED_EDGE ( 'NONE', *, *, #85, .T. ) ;
#58 = DIRECTION ( 'NONE',  ( -0.000000000000000000, -0.000000000000000000, -1.000000000000000000 ) ) ;
#59 = CIRCLE ( 'NONE', #212, 2.000000000000000000 ) ;
#60 = FACE_BOUND ( 'NONE', #154, .T. ) ;
#61 = FACE_OUTER_BOUND ( 'NONE', #198, .T. ) ;
#62 = CARTESIAN_POINT ( 'NONE',  ( -2.000000000000000000, 0.000000000000000000, 0.000000000000000000 ) ) ;
#63 = CC_DESIGN_PERSON_AND_ORGANIZATION_ASSIGNMENT ( #249, #105, ( #19 ) ) ;
#64 = DIRECTION ( 'NONE',  ( 0.000000000000000000, 0.000000000000000000, 1.000000000000000000 ) ) ;
#65 = AXIS2_PLACEMENT_3D ( 'NONE', #250, #173, #84 ) ;
#66 = DIRECTION ( 'NONE',  ( 1.000000000000000000, 0.000000000000000000, 0.000000000000000000 ) ) ;
#67 = CC_DESIGN_DATE_AND_TIME_ASSIGNMENT ( #157, #13, ( #143 ) ) ;
#68 = CARTESIAN_POINT ( 'NONE',  ( -1.000000000000000000, 0.000000000000000000, 2.000000000000000000 ) ) ;
#69 = PERSON_AND_ORGANIZATION ( #81, #229 ) ;
#70 = SECURITY_CLASSIFICATION_LEVEL ( 'unclassified' ) ;
#71 = ADVANCED_BREP_SHAPE_REPRESENTATION ( '8caf', ( #208, #222 ), #46 ) ;
#72 = VERTEX_POINT ( 'NONE', #102 ) ;
#73 = ORIENTED_EDGE ( 'NONE', *, *, #241, .T. ) ;
#74 = PLANE ( 'NONE',  #30 ) ;
#75 = AXIS2_PLACEMENT_3D ( 'NONE', #106, #127, #66 ) ;
#76 = CARTESIAN_POINT ( 'NONE',  ( 0.000000000000000000, 0.000000000000000000, 2.000000000000000000 ) ) ;
#77 = EDGE_CURVE ( 'NONE', #199, #156, #98, .T. ) ;
#78 = DIRECTION ( 'NONE',  ( 0.000000000000000000, 0.000000000000000000, 1.000000000000000000 ) ) ;
#79 = CYLINDRICAL_SURFACE ( 'NONE', #129, 1.000000000000000000 ) ;
#80 = AXIS2_PLACEMENT_3D ( 'NONE', #167, #40, #107 ) ;
#81 = PERSON ( 'NEURÈENÝ', 'NEURÈENÝ', 'NEURÈENÝ', ('NEURÈENÝ'), ('NEURÈENÝ'), ('NEURÈENÝ') ) ;
#82 = AXIS2_PLACEMENT_3D ( 'NONE', #194, #64, #233 ) ;
#83 = CARTESIAN_POINT ( 'NONE',  ( 0.000000000000000000, 0.000000000000000000, 100.0000000000000000 ) ) ;
#84 = DIRECTION ( 'NONE',  ( 1.000000000000000000, 0.000000000000000000, 0.000000000000000000 ) ) ;
#85 = EDGE_CURVE ( 'NONE', #156, #199, #133, .T. ) ;
#86 = CYLINDRICAL_SURFACE ( 'NONE', #203, 2.000000000000000000 ) ;
#87 = CYLINDRICAL_SURFACE ( 'NONE', #190, 2.000000000000000000 ) ;
#88 = CIRCLE ( 'NONE', #175, 2.000000000000000000 ) ;
#89 = CARTESIAN_POINT ( 'NONE',  ( 0.000000000000000000, 0.000000000000000000, 0.000000000000000000 ) ) ;
#90 = APPROVAL_ROLE ( '' ) ;
#91 = SHAPE_DEFINITION_REPRESENTATION ( #132, #71 ) ;
#92 = ADVANCED_FACE ( 'NONE', ( #240 ), #79, .T. ) ;
#93 = ORIENTED_EDGE ( 'NONE', *, *, #77, .F. ) ;
#94 = APPROVAL_DATE_TIME ( #215, #217 ) ;
#95 = PERSON_AND_ORGANIZATION_ROLE ( 'creator' ) ;
#96 = ORIENTED_EDGE ( 'NONE', *, *, #183, .T. ) ;
#97 = DIRECTION ( 'NONE',  ( 1.000000000000000000, 0.000000000000000000, 0.000000000000000000 ) ) ;
#98 = CIRCLE ( 'NONE', #209, 1.000000000000000000 ) ;
#99 = EDGE_LOOP ( 'NONE', ( #96, #73 ) ) ;
#100 = CC_DESIGN_APPROVAL ( #217, ( #2 ) ) ;
#101 = ORIENTED_EDGE ( 'NONE', *, *, #130, .F. ) ;
#102 = CARTESIAN_POINT ( 'NONE',  ( 1.000000000000000000, 1.224646799147353207E-16, 100.0000000000000000 ) ) ;
#103 = ADVANCED_FACE ( 'NONE', ( #206 ), #20, .T. ) ;
#104 = APPROVAL_PERSON_ORGANIZATION ( #69, #217, #153 ) ;
#105 = PERSON_AND_ORGANIZATION_ROLE ( 'design_owner' ) ;
#106 = CARTESIAN_POINT ( 'NONE',  ( 0.000000000000000000, 0.000000000000000000, 0.000000000000000000 ) ) ;
#107 = DIRECTION ( 'NONE',  ( 1.000000000000000000, 0.000000000000000000, -0.000000000000000000 ) ) ;
#108 = PRODUCT_DEFINITION ( 'NEZNÁMÝ', '', #2, #116 ) ;
#109 = AXIS2_PLACEMENT_3D ( 'NONE', #83, #23, #187 ) ;
#110 =( NAMED_UNIT ( * ) PLANE_ANGLE_UNIT ( ) SI_UNIT ( $, .RADIAN. ) );
#111 = DIRECTION ( 'NONE',  ( 1.000000000000000000, 0.000000000000000000, 0.000000000000000000 ) ) ;
#112 = APPROVAL_DATE_TIME ( #33, #147 ) ;
#113 = LOCAL_TIME ( 13, 53, 32.00000000000000000, #219 ) ;
#114 = ORIENTED_EDGE ( 'NONE', *, *, #55, .T. ) ;
#115 = ORIENTED_EDGE ( 'NONE', *, *, #246, .F. ) ;
#116 = DESIGN_CONTEXT ( 'detailed design', #195, 'design' ) ;
#117 = ORIENTED_EDGE ( 'NONE', *, *, #55, .F. ) ;
#118 = APPROVAL_PERSON_ORGANIZATION ( #8, #21, #90 ) ;
#119 = CARTESIAN_POINT ( 'NONE',  ( 0.000000000000000000, 0.000000000000000000, 2.000000000000000000 ) ) ;
#120 = EDGE_LOOP ( 'NONE', ( #38, #101, #15, #218 ) ) ;
#121 = CARTESIAN_POINT ( 'NONE',  ( 0.000000000000000000, 0.000000000000000000, 2.000000000000000000 ) ) ;
#122 = ORIENTED_EDGE ( 'NONE', *, *, #130, .T. ) ;
#123 = CARTESIAN_POINT ( 'NONE',  ( 1.000000000000000000, 1.224646799147353207E-16, 100.0000000000000000 ) ) ;
#124 = EDGE_CURVE ( 'NONE', #200, #156, #5, .T. ) ;
#125 = DIRECTION ( 'NONE',  ( -1.000000000000000000, 0.000000000000000000, 0.000000000000000000 ) ) ;
#126 = DIRECTION ( 'NONE',  ( 1.000000000000000000, 0.000000000000000000, 0.000000000000000000 ) ) ;
#127 = DIRECTION ( 'NONE',  ( 0.000000000000000000, 0.000000000000000000, 1.000000000000000000 ) ) ;
#128 = FACE_OUTER_BOUND ( 'NONE', #120, .T. ) ;
#129 = AXIS2_PLACEMENT_3D ( 'NONE', #204, #142, #189 ) ;
#130 = EDGE_CURVE ( 'NONE', #179, #239, #49, .T. ) ;
#131 = PERSON_AND_ORGANIZATION_ROLE ( 'creator' ) ;
#132 = PRODUCT_DEFINITION_SHAPE ( 'NONE', 'NONE',  #108 ) ;
#133 = CIRCLE ( 'NONE', #248, 1.000000000000000000 ) ;
#134 = LOCAL_TIME ( 13, 53, 32.00000000000000000, #53 ) ;
#135 = ORIENTED_EDGE ( 'NONE', *, *, #43, .F. ) ;
#136 = EDGE_CURVE ( 'NONE', #239, #56, #207, .T. ) ;
#137 = APPROVAL_STATUS ( 'not_yet_approved' ) ;
#138 = ORIENTED_EDGE ( 'NONE', *, *, #28, .F. ) ;
#139 = APPROVAL_PERSON_ORGANIZATION ( #214, #147, #52 ) ;
#140 = DIRECTION ( 'NONE',  ( 1.000000000000000000, 0.000000000000000000, 0.000000000000000000 ) ) ;
#141 = EDGE_LOOP ( 'NONE', ( #117, #159, #221, #57 ) ) ;
#142 = DIRECTION ( 'NONE',  ( -0.000000000000000000, -0.000000000000000000, -1.000000000000000000 ) ) ;
#143 = SECURITY_CLASSIFICATION ( '', '', #70 ) ;
#144 = ORIENTED_EDGE ( 'NONE', *, *, #77, .T. ) ;
#145 =( LENGTH_UNIT ( ) NAMED_UNIT ( * ) SI_UNIT ( .MILLI., .METRE. ) );
#146 = CARTESIAN_POINT ( 'NONE',  ( 2.000000000000000000, 2.449293598294706414E-16, 2.000000000000000000 ) ) ;
#147 = APPROVAL ( #137, 'NEURÈENÝ' ) ;
#148 = DIRECTION ( 'NONE',  ( 1.000000000000000000, 0.000000000000000000, 0.000000000000000000 ) ) ;
#149 = FACE_OUTER_BOUND ( 'NONE', #99, .T. ) ;
#150 = CIRCLE ( 'NONE', #65, 1.000000000000000000 ) ;
#151 = DATE_AND_TIME ( #39, #113 ) ;
#152 = ADVANCED_FACE ( 'NONE', ( #188 ), #166, .F. ) ;
#153 = APPROVAL_ROLE ( '' ) ;
#154 = EDGE_LOOP ( 'NONE', ( #14, #93 ) ) ;
#155 = COORDINATED_UNIVERSAL_TIME_OFFSET ( 1, 0, .AHEAD. ) ;
#156 = VERTEX_POINT ( 'NONE', #68 ) ;
#157 = DATE_AND_TIME ( #37, #134 ) ;
#158 = LOCAL_TIME ( 13, 53, 32.00000000000000000, #177 ) ;
#159 = ORIENTED_EDGE ( 'NONE', *, *, #183, .F. ) ;
#160 = PERSON_AND_ORGANIZATION ( #81, #229 ) ;
#161 = DIRECTION ( 'NONE',  ( 1.000000000000000000, 0.000000000000000000, -0.000000000000000000 ) ) ;
#162 = ADVANCED_FACE ( 'NONE', ( #31 ), #86, .T. ) ;
#163 = DIRECTION ( 'NONE',  ( 1.000000000000000000, 0.000000000000000000, 0.000000000000000000 ) ) ;
#164 = DIRECTION ( 'NONE',  ( -0.000000000000000000, -0.000000000000000000, -1.000000000000000000 ) ) ;
#165 = CC_DESIGN_PERSON_AND_ORGANIZATION_ASSIGNMENT ( #34, #237, ( #2 ) ) ;
#166 = PLANE ( 'NONE',  #80 ) ;
#167 = CARTESIAN_POINT ( 'NONE',  ( 0.000000000000000000, 0.000000000000000000, 0.000000000000000000 ) ) ;
#168 = CARTESIAN_POINT ( 'NONE',  ( -2.000000000000000000, 0.000000000000000000, 2.000000000000000000 ) ) ;
#169 = DIRECTION ( 'NONE',  ( 0.000000000000000000, 0.000000000000000000, 1.000000000000000000 ) ) ;
#170 = CC_DESIGN_SECURITY_CLASSIFICATION ( #143, ( #2 ) ) ;
#171 = DIRECTION ( 'NONE',  ( 0.000000000000000000, 0.000000000000000000, 1.000000000000000000 ) ) ;
#172 = ADVANCED_FACE ( 'NONE', ( #149 ), #251, .T. ) ;
#173 = DIRECTION ( 'NONE',  ( 0.000000000000000000, 0.000000000000000000, 1.000000000000000000 ) ) ;
#174 = CLOSED_SHELL ( 'NONE', ( #103, #162, #254, #4, #152, #92, #172 ) ) ;
#175 = AXIS2_PLACEMENT_3D ( 'NONE', #48, #169, #148 ) ;
#176 = APPROVAL_DATE_TIME ( #235, #21 ) ;
#177 = COORDINATED_UNIVERSAL_TIME_OFFSET ( 1, 0, .AHEAD. ) ;
#178 = APPROVAL_STATUS ( 'not_yet_approved' ) ;
#179 = VERTEX_POINT ( 'NONE', #168 ) ;
#180 = VECTOR ( 'NONE', #243, 1000.000000000000000 ) ;
#181 = CALENDAR_DATE ( 2023, 12, 2 ) ;
#182 = EDGE_LOOP ( 'NONE', ( #135, #253, #41, #138 ) ) ;
#183 = EDGE_CURVE ( 'NONE', #200, #72, #150, .T. ) ;
#184 = CARTESIAN_POINT ( 'NONE',  ( 0.000000000000000000, 0.000000000000000000, 2.000000000000000000 ) ) ;
#185 = CARTESIAN_POINT ( 'NONE',  ( 2.000000000000000000, 2.449293598294706414E-16, 0.000000000000000000 ) ) ;
#186 = LOCAL_TIME ( 13, 53, 32.00000000000000000, #155 ) ;
#187 = DIRECTION ( 'NONE',  ( -1.000000000000000000, 0.000000000000000000, 0.000000000000000000 ) ) ;
#188 = FACE_OUTER_BOUND ( 'NONE', #35, .T. ) ;
#189 = DIRECTION ( 'NONE',  ( -1.000000000000000000, 0.000000000000000000, 0.000000000000000000 ) ) ;
#190 = AXIS2_PLACEMENT_3D ( 'NONE', #213, #32, #125 ) ;
#191 = APPLICATION_PROTOCOL_DEFINITION ( 'international standard', 'config_control_design', 1994, #195 ) ;
#192 = DIRECTION ( 'NONE',  ( -0.000000000000000000, -0.000000000000000000, -1.000000000000000000 ) ) ;
#193 = APPLICATION_CONTEXT ( 'configuration controlled 3d designs of mechanical parts and assemblies' ) ;
#194 = CARTESIAN_POINT ( 'NONE',  ( 0.000000000000000000, 0.000000000000000000, 100.0000000000000000 ) ) ;
#195 = APPLICATION_CONTEXT ( 'configuration controlled 3d designs of mechanical parts and assemblies' ) ;
#196 = PERSON_AND_ORGANIZATION_ROLE ( 'classification_officer' ) ;
#197 = CC_DESIGN_PERSON_AND_ORGANIZATION_ASSIGNMENT ( #51, #131, ( #2 ) ) ;
#198 = EDGE_LOOP ( 'NONE', ( #122, #255 ) ) ;
#199 = VERTEX_POINT ( 'NONE', #211 ) ;
#200 = VERTEX_POINT ( 'NONE', #230 ) ;
#201 = VECTOR ( 'NONE', #244, 1000.000000000000000 ) ;
#202 = COORDINATED_UNIVERSAL_TIME_OFFSET ( 1, 0, .AHEAD. ) ;
#203 = AXIS2_PLACEMENT_3D ( 'NONE', #29, #192, #247 ) ;
#204 = CARTESIAN_POINT ( 'NONE',  ( 0.000000000000000000, 0.000000000000000000, 100.0000000000000000 ) ) ;
#205 = ORIENTED_EDGE ( 'NONE', *, *, #210, .F. ) ;
#206 = FACE_OUTER_BOUND ( 'NONE', #42, .T. ) ;
#207 = LINE ( 'NONE', #24, #201 ) ;
#208 = MANIFOLD_SOLID_BREP ( 'Pøidat vysunutím3', #174 ) ;
#209 = AXIS2_PLACEMENT_3D ( 'NONE', #76, #242, #97 ) ;
#210 = EDGE_CURVE ( 'NONE', #220, #56, #17, .T. ) ;
#211 = CARTESIAN_POINT ( 'NONE',  ( 1.000000000000000000, 1.224646799147353207E-16, 2.000000000000000000 ) ) ;
#212 = AXIS2_PLACEMENT_3D ( 'NONE', #6, #44, #163 ) ;
#213 = CARTESIAN_POINT ( 'NONE',  ( 0.000000000000000000, 0.000000000000000000, 2.000000000000000000 ) ) ;
#214 = PERSON_AND_ORGANIZATION ( #81, #229 ) ;
#215 = DATE_AND_TIME ( #236, #186 ) ;
#216 = ORIENTED_EDGE ( 'NONE', *, *, #241, .F. ) ;
#217 = APPROVAL ( #178, 'NEURÈENÝ' ) ;
#218 = ORIENTED_EDGE ( 'NONE', *, *, #210, .T. ) ;
#219 = COORDINATED_UNIVERSAL_TIME_OFFSET ( 1, 0, .AHEAD. ) ;
#220 = VERTEX_POINT ( 'NONE', #62 ) ;
#221 = ORIENTED_EDGE ( 'NONE', *, *, #124, .T. ) ;
#222 = AXIS2_PLACEMENT_3D ( 'NONE', #89, #171, #111 ) ;
#223 = CARTESIAN_POINT ( 'NONE',  ( -1.000000000000000000, 0.000000000000000000, 100.0000000000000000 ) ) ;
#224 = DIRECTION ( 'NONE',  ( 0.000000000000000000, 0.000000000000000000, 1.000000000000000000 ) ) ;
#225 = DIRECTION ( 'NONE',  ( 1.000000000000000000, 0.000000000000000000, 0.000000000000000000 ) ) ;
#226 = DIRECTION ( 'NONE',  ( 0.000000000000000000, 0.000000000000000000, 1.000000000000000000 ) ) ;
#227 = APPLICATION_PROTOCOL_DEFINITION ( 'international standard', 'config_control_design', 1994, #193 ) ;
#228 = DIRECTION ( 'NONE',  ( 0.000000000000000000, 0.000000000000000000, 1.000000000000000000 ) ) ;
#229 = ORGANIZATION ( 'NEURÈENÝ', 'NEURÈENÝ', '' ) ;
#230 = CARTESIAN_POINT ( 'NONE',  ( -1.000000000000000000, 0.000000000000000000, 100.0000000000000000 ) ) ;
#231 = CC_DESIGN_PERSON_AND_ORGANIZATION_ASSIGNMENT ( #16, #196, ( #143 ) ) ;
#232 =( NAMED_UNIT ( * ) SI_UNIT ( $, .STERADIAN. ) SOLID_ANGLE_UNIT ( ) );
#233 = DIRECTION ( 'NONE',  ( 1.000000000000000000, 0.000000000000000000, -0.000000000000000000 ) ) ;
#234 = AXIS2_PLACEMENT_3D ( 'NONE', #9, #228, #126 ) ;
#235 = DATE_AND_TIME ( #181, #158 ) ;
#236 = CALENDAR_DATE ( 2023, 12, 2 ) ;
#237 = PERSON_AND_ORGANIZATION_ROLE ( 'design_supplier' ) ;
#238 = VECTOR ( 'NONE', #164, 1000.000000000000000 ) ;
#239 = VERTEX_POINT ( 'NONE', #146 ) ;
#240 = FACE_OUTER_BOUND ( 'NONE', #141, .T. ) ;
#241 = EDGE_CURVE ( 'NONE', #72, #200, #11, .T. ) ;
#242 = DIRECTION ( 'NONE',  ( 0.000000000000000000, 0.000000000000000000, 1.000000000000000000 ) ) ;
#243 = DIRECTION ( 'NONE',  ( -0.000000000000000000, -0.000000000000000000, -1.000000000000000000 ) ) ;
#244 = DIRECTION ( 'NONE',  ( -0.000000000000000000, -0.000000000000000000, -1.000000000000000000 ) ) ;
#245 = ORIENTED_EDGE ( 'NONE', *, *, #124, .F. ) ;
#246 = EDGE_CURVE ( 'NONE', #56, #220, #88, .T. ) ;
#247 = DIRECTION ( 'NONE',  ( -1.000000000000000000, 0.000000000000000000, 0.000000000000000000 ) ) ;
#248 = AXIS2_PLACEMENT_3D ( 'NONE', #119, #224, #140 ) ;
#249 = PERSON_AND_ORGANIZATION ( #81, #229 ) ;
#250 = CARTESIAN_POINT ( 'NONE',  ( 0.000000000000000000, 0.000000000000000000, 100.0000000000000000 ) ) ;
#251 = PLANE ( 'NONE',  #82 ) ;
#252 = AXIS2_PLACEMENT_3D ( 'NONE', #184, #78, #225 ) ;
#253 = ORIENTED_EDGE ( 'NONE', *, *, #136, .T. ) ;
#254 = ADVANCED_FACE ( 'NONE', ( #128 ), #87, .T. ) ;
#255 = ORIENTED_EDGE ( 'NONE', *, *, #43, .T. ) ;
ENDSEC;
END-ISO-10303-21;
