ISO-10303-21;
HEADER;
FILE_DESCRIPTION (( 'STEP AP203' ),
    '1' );
FILE_NAME ('e3bd.STEP',
    '2023-02-12T11:34:45',
    ( '' ),
    ( '' ),
    'SwSTEP 2.0',
    'SolidWorks 2019',
    '' );
FILE_SCHEMA (( 'CONFIG_CONTROL_DESIGN' ));
ENDSEC;

DATA;
#1 = DIRECTION ( 'NONE',  ( 1.000000000000000000, 0.000000000000000000, 0.000000000000000000 ) ) ;
#2 = CARTESIAN_POINT ( 'NONE',  ( 0.000000000000000000, 0.000000000000000000, 5.000000000000000000 ) ) ;
#3 = CC_DESIGN_PERSON_AND_ORGANIZATION_ASSIGNMENT ( #54, #115, ( #13 ) ) ;
#4 = CYLINDRICAL_SURFACE ( 'NONE', #208, 4.500000000000000888 ) ;
#5 = EDGE_LOOP ( 'NONE', ( #219, #141, #185, #239 ) ) ;
#6 = AXIS2_PLACEMENT_3D ( 'NONE', #2, #84, #237 ) ;
#7 = DIRECTION ( 'NONE',  ( 1.000000000000000000, 0.000000000000000000, 0.000000000000000000 ) ) ;
#8 = PRODUCT_DEFINITION_SHAPE ( 'NONE', 'NONE',  #212 ) ;
#9 = VERTEX_POINT ( 'NONE', #168 ) ;
#10 = VERTEX_POINT ( 'NONE', #205 ) ;
#11 = DIRECTION ( 'NONE',  ( 0.000000000000000000, 0.000000000000000000, 1.000000000000000000 ) ) ;
#12 = AXIS2_PLACEMENT_3D ( 'NONE', #87, #181, #228 ) ;
#13 = PRODUCT ( 'e3bd', 'e3bd', '', ( #127 ) ) ;
#14 =( NAMED_UNIT ( * ) SI_UNIT ( $, .STERADIAN. ) SOLID_ANGLE_UNIT ( ) );
#15 = UNCERTAINTY_MEASURE_WITH_UNIT (LENGTH_MEASURE( 1.000000000000000082E-05 ), #211, 'distance_accuracy_value', 'NONE');
#16 = APPROVAL_STATUS ( 'not_yet_approved' ) ;
#17 = PERSON_AND_ORGANIZATION_ROLE ( 'creator' ) ;
#18 = AXIS2_PLACEMENT_3D ( 'NONE', #50, #90, #26 ) ;
#19 = PERSON_AND_ORGANIZATION ( #68, #178 ) ;
#20 = CARTESIAN_POINT ( 'NONE',  ( 0.000000000000000000, 0.000000000000000000, 630.0000000000000000 ) ) ;
#21 = APPROVAL_ROLE ( '' ) ;
#22 = CARTESIAN_POINT ( 'NONE',  ( 7.000000000000000000, 8.572527594031473190E-16, 5.000000000000000000 ) ) ;
#23 = EDGE_LOOP ( 'NONE', ( #199, #79 ) ) ;
#24 = COORDINATED_UNIVERSAL_TIME_OFFSET ( 1, 0, .AHEAD. ) ;
#25 = ADVANCED_FACE ( 'NONE', ( #246 ), #245, .T. ) ;
#26 = DIRECTION ( 'NONE',  ( -1.000000000000000000, 0.000000000000000000, 0.000000000000000000 ) ) ;
#27 = DIRECTION ( 'NONE',  ( -0.000000000000000000, -0.000000000000000000, -1.000000000000000000 ) ) ;
#28 = CIRCLE ( 'NONE', #33, 4.500000000000000888 ) ;
#29 = LOCAL_TIME ( 12, 34, 45.00000000000000000, #232 ) ;
#30 = EDGE_LOOP ( 'NONE', ( #159, #134, #52, #144 ) ) ;
#31 = CC_DESIGN_DATE_AND_TIME_ASSIGNMENT ( #230, #72, ( #212 ) ) ;
#32 = APPROVAL_DATE_TIME ( #191, #184 ) ;
#33 = AXIS2_PLACEMENT_3D ( 'NONE', #197, #120, #1 ) ;
#34 = LOCAL_TIME ( 12, 34, 45.00000000000000000, #231 ) ;
#35 = APPLICATION_PROTOCOL_DEFINITION ( 'international standard', 'config_control_design', 1994, #189 ) ;
#36 = DIRECTION ( 'NONE',  ( -1.000000000000000000, 0.000000000000000000, 0.000000000000000000 ) ) ;
#37 = APPROVAL_STATUS ( 'not_yet_approved' ) ;
#38 = CARTESIAN_POINT ( 'NONE',  ( 7.000000000000000000, 8.572527594031473190E-16, 5.000000000000000000 ) ) ;
#39 = ORIENTED_EDGE ( 'NONE', *, *, #99, .T. ) ;
#40 = COORDINATED_UNIVERSAL_TIME_OFFSET ( 1, 0, .AHEAD. ) ;
#41 = LINE ( 'NONE', #166, #169 ) ;
#42 = EDGE_CURVE ( 'NONE', #186, #89, #222, .T. ) ;
#43 = APPROVAL_ROLE ( '' ) ;
#44 = CARTESIAN_POINT ( 'NONE',  ( 4.500000000000000888, 5.510910596163089556E-16, 630.0000000000000000 ) ) ;
#45 = CC_DESIGN_APPROVAL ( #184, ( #212 ) ) ;
#46 = DIRECTION ( 'NONE',  ( 0.000000000000000000, 0.000000000000000000, 1.000000000000000000 ) ) ;
#47 = CARTESIAN_POINT ( 'NONE',  ( 0.000000000000000000, 0.000000000000000000, 0.000000000000000000 ) ) ;
#48 = ORIENTED_EDGE ( 'NONE', *, *, #229, .F. ) ;
#49 = CIRCLE ( 'NONE', #91, 7.000000000000000000 ) ;
#50 = CARTESIAN_POINT ( 'NONE',  ( 0.000000000000000000, 0.000000000000000000, 630.0000000000000000 ) ) ;
#51 = CARTESIAN_POINT ( 'NONE',  ( 0.000000000000000000, 0.000000000000000000, 5.000000000000000000 ) ) ;
#52 = ORIENTED_EDGE ( 'NONE', *, *, #229, .T. ) ;
#53 = EDGE_CURVE ( 'NONE', #156, #10, #118, .T. ) ;
#54 = PERSON_AND_ORGANIZATION ( #68, #178 ) ;
#55 = PRODUCT_DEFINITION_FORMATION_WITH_SPECIFIED_SOURCE ( 'LIBOVOLNÝ', '', #13, .NOT_KNOWN. ) ;
#56 = AXIS2_PLACEMENT_3D ( 'NONE', #133, #85, #58 ) ;
#57 = APPROVAL_PERSON_ORGANIZATION ( #19, #108, #21 ) ;
#58 = DIRECTION ( 'NONE',  ( 1.000000000000000000, 0.000000000000000000, 0.000000000000000000 ) ) ;
#59 = PRODUCT_RELATED_PRODUCT_CATEGORY ( 'detail', '', ( #13 ) ) ;
#60 = DIRECTION ( 'NONE',  ( 0.000000000000000000, 0.000000000000000000, 1.000000000000000000 ) ) ;
#61 = PLANE ( 'NONE',  #136 ) ;
#62 = PERSON_AND_ORGANIZATION ( #68, #178 ) ;
#63 = DIRECTION ( 'NONE',  ( -0.000000000000000000, -0.000000000000000000, -1.000000000000000000 ) ) ;
#64 = ORIENTED_EDGE ( 'NONE', *, *, #150, .F. ) ;
#65 = VERTEX_POINT ( 'NONE', #254 ) ;
#66 = CARTESIAN_POINT ( 'NONE',  ( 0.000000000000000000, 0.000000000000000000, 0.000000000000000000 ) ) ;
#67 = VERTEX_POINT ( 'NONE', #22 ) ;
#68 = PERSON ( 'NEURÈENÝ', 'NEURÈENÝ', 'NEURÈENÝ', ('NEURÈENÝ'), ('NEURÈENÝ'), ('NEURÈENÝ') ) ;
#69 = APPROVAL_PERSON_ORGANIZATION ( #194, #122, #43 ) ;
#70 = EDGE_CURVE ( 'NONE', #9, #103, #175, .T. ) ;
#71 = DIRECTION ( 'NONE',  ( 0.000000000000000000, 0.000000000000000000, 1.000000000000000000 ) ) ;
#72 = DATE_TIME_ROLE ( 'creation_date' ) ;
#73 = VECTOR ( 'NONE', #63, 1000.000000000000000 ) ;
#74 = CC_DESIGN_SECURITY_CLASSIFICATION ( #121, ( #55 ) ) ;
#75 = PERSON_AND_ORGANIZATION ( #68, #178 ) ;
#76 = DATE_AND_TIME ( #255, #204 ) ;
#77 = CC_DESIGN_PERSON_AND_ORGANIZATION_ASSIGNMENT ( #100, #253, ( #55 ) ) ;
#78 = DATE_AND_TIME ( #102, #97 ) ;
#79 = ORIENTED_EDGE ( 'NONE', *, *, #206, .T. ) ;
#80 = APPROVAL_DATE_TIME ( #76, #122 ) ;
#81 = ADVANCED_FACE ( 'NONE', ( #137 ), #4, .T. ) ;
#82 = DIRECTION ( 'NONE',  ( -0.000000000000000000, -0.000000000000000000, -1.000000000000000000 ) ) ;
#83 = DIRECTION ( 'NONE',  ( 0.000000000000000000, 0.000000000000000000, 1.000000000000000000 ) ) ;
#84 = DIRECTION ( 'NONE',  ( 0.000000000000000000, 0.000000000000000000, 1.000000000000000000 ) ) ;
#85 = DIRECTION ( 'NONE',  ( 0.000000000000000000, 0.000000000000000000, 1.000000000000000000 ) ) ;
#86 = CARTESIAN_POINT ( 'NONE',  ( -7.000000000000000000, 0.000000000000000000, 5.000000000000000000 ) ) ;
#87 = CARTESIAN_POINT ( 'NONE',  ( 0.000000000000000000, 0.000000000000000000, 5.000000000000000000 ) ) ;
#88 = DIRECTION ( 'NONE',  ( 1.000000000000000000, 0.000000000000000000, 0.000000000000000000 ) ) ;
#89 = VERTEX_POINT ( 'NONE', #226 ) ;
#90 = DIRECTION ( 'NONE',  ( -0.000000000000000000, -0.000000000000000000, -1.000000000000000000 ) ) ;
#91 = AXIS2_PLACEMENT_3D ( 'NONE', #66, #163, #188 ) ;
#92 = EDGE_CURVE ( 'NONE', #103, #9, #129, .T. ) ;
#93 = CIRCLE ( 'NONE', #233, 7.000000000000000000 ) ;
#94 = CARTESIAN_POINT ( 'NONE',  ( 4.500000000000000888, 5.510910596163089556E-16, 5.000000000000000000 ) ) ;
#95 = CC_DESIGN_APPROVAL ( #108, ( #121 ) ) ;
#96 = CC_DESIGN_PERSON_AND_ORGANIZATION_ASSIGNMENT ( #75, #247, ( #212 ) ) ;
#97 = LOCAL_TIME ( 12, 34, 45.00000000000000000, #251 ) ;
#98 = CARTESIAN_POINT ( 'NONE',  ( 0.000000000000000000, 0.000000000000000000, 0.000000000000000000 ) ) ;
#99 = EDGE_CURVE ( 'NONE', #89, #65, #49, .T. ) ;
#100 = PERSON_AND_ORGANIZATION ( #68, #178 ) ;
#101 = CYLINDRICAL_SURFACE ( 'NONE', #172, 7.000000000000000000 ) ;
#102 = CALENDAR_DATE ( 2023, 12, 2 ) ;
#103 = VERTEX_POINT ( 'NONE', #94 ) ;
#104 = PERSON_AND_ORGANIZATION_ROLE ( 'classification_officer' ) ;
#105 = AXIS2_PLACEMENT_3D ( 'NONE', #242, #46, #177 ) ;
#106 = CARTESIAN_POINT ( 'NONE',  ( 0.000000000000000000, 0.000000000000000000, 5.000000000000000000 ) ) ;
#107 = EDGE_LOOP ( 'NONE', ( #252, #227, #180, #39 ) ) ;
#108 = APPROVAL ( #37, 'NEURÈENÝ' ) ;
#109 = CLOSED_SHELL ( 'NONE', ( #25, #116, #234, #152, #138, #81, #111 ) ) ;
#110 = EDGE_LOOP ( 'NONE', ( #126, #48 ) ) ;
#111 = ADVANCED_FACE ( 'NONE', ( #164 ), #207, .T. ) ;
#112 = ORIENTED_EDGE ( 'NONE', *, *, #92, .F. ) ;
#113 = DIRECTION ( 'NONE',  ( 0.000000000000000000, 0.000000000000000000, 1.000000000000000000 ) ) ;
#114 = CYLINDRICAL_SURFACE ( 'NONE', #12, 7.000000000000000000 ) ;
#115 = PERSON_AND_ORGANIZATION_ROLE ( 'design_owner' ) ;
#116 = ADVANCED_FACE ( 'NONE', ( #170 ), #114, .T. ) ;
#117 = CALENDAR_DATE ( 2023, 12, 2 ) ;
#118 = CIRCLE ( 'NONE', #105, 4.500000000000000888 ) ;
#119 = LOCAL_TIME ( 12, 34, 45.00000000000000000, #40 ) ;
#120 = DIRECTION ( 'NONE',  ( 0.000000000000000000, 0.000000000000000000, 1.000000000000000000 ) ) ;
#121 = SECURITY_CLASSIFICATION ( '', '', #135 ) ;
#122 = APPROVAL ( #149, 'NEURÈENÝ' ) ;
#123 = SHAPE_DEFINITION_REPRESENTATION ( #8, #244 ) ;
#124 = VECTOR ( 'NONE', #161, 1000.000000000000000 ) ;
#125 = ORIENTED_EDGE ( 'NONE', *, *, #225, .T. ) ;
#126 = ORIENTED_EDGE ( 'NONE', *, *, #99, .F. ) ;
#127 = MECHANICAL_CONTEXT ( 'NONE', #189, 'mechanical' ) ;
#128 = APPLICATION_PROTOCOL_DEFINITION ( 'international standard', 'config_control_design', 1994, #201 ) ;
#129 = CIRCLE ( 'NONE', #154, 4.500000000000000888 ) ;
#130 = CALENDAR_DATE ( 2023, 12, 2 ) ;
#131 = CARTESIAN_POINT ( 'NONE',  ( 0.000000000000000000, 0.000000000000000000, 5.000000000000000000 ) ) ;
#132 = DATE_TIME_ROLE ( 'classification_date' ) ;
#133 = CARTESIAN_POINT ( 'NONE',  ( 0.000000000000000000, 0.000000000000000000, 0.000000000000000000 ) ) ;
#134 = ORIENTED_EDGE ( 'NONE', *, *, #158, .T. ) ;
#135 = SECURITY_CLASSIFICATION_LEVEL ( 'unclassified' ) ;
#136 = AXIS2_PLACEMENT_3D ( 'NONE', #106, #83, #157 ) ;
#137 = FACE_OUTER_BOUND ( 'NONE', #224, .T. ) ;
#138 = ADVANCED_FACE ( 'NONE', ( #243 ), #142, .F. ) ;
#139 =( GEOMETRIC_REPRESENTATION_CONTEXT ( 3 ) GLOBAL_UNCERTAINTY_ASSIGNED_CONTEXT ( ( #15 ) ) GLOBAL_UNIT_ASSIGNED_CONTEXT ( ( #211, #146, #14 ) ) REPRESENTATION_CONTEXT ( 'NONE', 'WORKASPACE' ) );
#140 = CARTESIAN_POINT ( 'NONE',  ( 0.000000000000000000, 0.000000000000000000, 5.000000000000000000 ) ) ;
#141 = ORIENTED_EDGE ( 'NONE', *, *, #150, .T. ) ;
#142 = PLANE ( 'NONE',  #160 ) ;
#143 = ORIENTED_EDGE ( 'NONE', *, *, #53, .T. ) ;
#144 = ORIENTED_EDGE ( 'NONE', *, *, #42, .F. ) ;
#145 = DIRECTION ( 'NONE',  ( -1.000000000000000000, 0.000000000000000000, 0.000000000000000000 ) ) ;
#146 =( NAMED_UNIT ( * ) PLANE_ANGLE_UNIT ( ) SI_UNIT ( $, .RADIAN. ) );
#147 = DIRECTION ( 'NONE',  ( 1.000000000000000000, 0.000000000000000000, -0.000000000000000000 ) ) ;
#148 = CC_DESIGN_DATE_AND_TIME_ASSIGNMENT ( #236, #132, ( #121 ) ) ;
#149 = APPROVAL_STATUS ( 'not_yet_approved' ) ;
#150 = EDGE_CURVE ( 'NONE', #156, #103, #192, .T. ) ;
#151 = CIRCLE ( 'NONE', #56, 7.000000000000000000 ) ;
#152 = ADVANCED_FACE ( 'NONE', ( #200, #174 ), #61, .T. ) ;
#153 = EDGE_LOOP ( 'NONE', ( #125, #143 ) ) ;
#154 = AXIS2_PLACEMENT_3D ( 'NONE', #51, #113, #7 ) ;
#155 = DIRECTION ( 'NONE',  ( -0.000000000000000000, -0.000000000000000000, -1.000000000000000000 ) ) ;
#156 = VERTEX_POINT ( 'NONE', #44 ) ;
#157 = DIRECTION ( 'NONE',  ( 1.000000000000000000, 0.000000000000000000, -0.000000000000000000 ) ) ;
#158 = EDGE_CURVE ( 'NONE', #67, #65, #218, .T. ) ;
#159 = ORIENTED_EDGE ( 'NONE', *, *, #206, .F. ) ;
#160 = AXIS2_PLACEMENT_3D ( 'NONE', #47, #202, #190 ) ;
#161 = DIRECTION ( 'NONE',  ( -0.000000000000000000, -0.000000000000000000, -1.000000000000000000 ) ) ;
#162 = APPROVAL_PERSON_ORGANIZATION ( #193, #184, #173 ) ;
#163 = DIRECTION ( 'NONE',  ( 0.000000000000000000, 0.000000000000000000, 1.000000000000000000 ) ) ;
#164 = FACE_OUTER_BOUND ( 'NONE', #153, .T. ) ;
#165 = ORIENTED_EDGE ( 'NONE', *, *, #225, .F. ) ;
#166 = CARTESIAN_POINT ( 'NONE',  ( -4.500000000000000888, 0.000000000000000000, 630.0000000000000000 ) ) ;
#167 = DIRECTION ( 'NONE',  ( -0.000000000000000000, -0.000000000000000000, -1.000000000000000000 ) ) ;
#168 = CARTESIAN_POINT ( 'NONE',  ( -4.500000000000000888, 0.000000000000000000, 5.000000000000000000 ) ) ;
#169 = VECTOR ( 'NONE', #27, 1000.000000000000000 ) ;
#170 = FACE_OUTER_BOUND ( 'NONE', #30, .T. ) ;
#171 = DIRECTION ( 'NONE',  ( 0.000000000000000000, 0.000000000000000000, 1.000000000000000000 ) ) ;
#172 = AXIS2_PLACEMENT_3D ( 'NONE', #131, #155, #36 ) ;
#173 = APPROVAL_ROLE ( '' ) ;
#174 = FACE_OUTER_BOUND ( 'NONE', #23, .T. ) ;
#175 = CIRCLE ( 'NONE', #6, 4.500000000000000888 ) ;
#176 = CARTESIAN_POINT ( 'NONE',  ( -7.000000000000000000, 0.000000000000000000, 5.000000000000000000 ) ) ;
#177 = DIRECTION ( 'NONE',  ( 1.000000000000000000, 0.000000000000000000, 0.000000000000000000 ) ) ;
#178 = ORGANIZATION ( 'NEURÈENÝ', 'NEURÈENÝ', '' ) ;
#179 = DIRECTION ( 'NONE',  ( 1.000000000000000000, 0.000000000000000000, 0.000000000000000000 ) ) ;
#180 = ORIENTED_EDGE ( 'NONE', *, *, #42, .T. ) ;
#181 = DIRECTION ( 'NONE',  ( -0.000000000000000000, -0.000000000000000000, -1.000000000000000000 ) ) ;
#182 = ORIENTED_EDGE ( 'NONE', *, *, #70, .F. ) ;
#183 = CARTESIAN_POINT ( 'NONE',  ( 0.000000000000000000, 0.000000000000000000, 630.0000000000000000 ) ) ;
#184 = APPROVAL ( #16, 'NEURÈENÝ' ) ;
#185 = ORIENTED_EDGE ( 'NONE', *, *, #92, .T. ) ;
#186 = VERTEX_POINT ( 'NONE', #176 ) ;
#187 = DESIGN_CONTEXT ( 'detailed design', #201, 'design' ) ;
#188 = DIRECTION ( 'NONE',  ( 1.000000000000000000, 0.000000000000000000, 0.000000000000000000 ) ) ;
#189 = APPLICATION_CONTEXT ( 'configuration controlled 3d designs of mechanical parts and assemblies' ) ;
#190 = DIRECTION ( 'NONE',  ( 1.000000000000000000, 0.000000000000000000, -0.000000000000000000 ) ) ;
#191 = DATE_AND_TIME ( #117, #34 ) ;
#192 = LINE ( 'NONE', #198, #250 ) ;
#193 = PERSON_AND_ORGANIZATION ( #68, #178 ) ;
#194 = PERSON_AND_ORGANIZATION ( #68, #178 ) ;
#195 = CALENDAR_DATE ( 2023, 12, 2 ) ;
#196 = CC_DESIGN_PERSON_AND_ORGANIZATION_ASSIGNMENT ( #213, #104, ( #121 ) ) ;
#197 = CARTESIAN_POINT ( 'NONE',  ( 0.000000000000000000, 0.000000000000000000, 630.0000000000000000 ) ) ;
#198 = CARTESIAN_POINT ( 'NONE',  ( 4.500000000000000888, 5.510910596163089556E-16, 630.0000000000000000 ) ) ;
#199 = ORIENTED_EDGE ( 'NONE', *, *, #249, .T. ) ;
#200 = FACE_BOUND ( 'NONE', #203, .T. ) ;
#201 = APPLICATION_CONTEXT ( 'configuration controlled 3d designs of mechanical parts and assemblies' ) ;
#202 = DIRECTION ( 'NONE',  ( 0.000000000000000000, 0.000000000000000000, 1.000000000000000000 ) ) ;
#203 = EDGE_LOOP ( 'NONE', ( #182, #112 ) ) ;
#204 = LOCAL_TIME ( 12, 34, 45.00000000000000000, #24 ) ;
#205 = CARTESIAN_POINT ( 'NONE',  ( -4.500000000000000888, 0.000000000000000000, 630.0000000000000000 ) ) ;
#206 = EDGE_CURVE ( 'NONE', #67, #186, #215, .T. ) ;
#207 = PLANE ( 'NONE',  #220 ) ;
#208 = AXIS2_PLACEMENT_3D ( 'NONE', #20, #167, #145 ) ;
#209 = CC_DESIGN_APPROVAL ( #122, ( #55 ) ) ;
#210 = CC_DESIGN_PERSON_AND_ORGANIZATION_ASSIGNMENT ( #62, #17, ( #55 ) ) ;
#211 =( LENGTH_UNIT ( ) NAMED_UNIT ( * ) SI_UNIT ( .MILLI., .METRE. ) );
#212 = PRODUCT_DEFINITION ( 'NEZNÁMÝ', '', #55, #187 ) ;
#213 = PERSON_AND_ORGANIZATION ( #68, #178 ) ;
#214 = FACE_OUTER_BOUND ( 'NONE', #107, .T. ) ;
#215 = CIRCLE ( 'NONE', #221, 7.000000000000000000 ) ;
#216 = AXIS2_PLACEMENT_3D ( 'NONE', #98, #171, #248 ) ;
#217 = MANIFOLD_SOLID_BREP ( 'Pøidat vysunutím3', #109 ) ;
#218 = LINE ( 'NONE', #38, #73 ) ;
#219 = ORIENTED_EDGE ( 'NONE', *, *, #53, .F. ) ;
#220 = AXIS2_PLACEMENT_3D ( 'NONE', #183, #71, #147 ) ;
#221 = AXIS2_PLACEMENT_3D ( 'NONE', #235, #60, #179 ) ;
#222 = LINE ( 'NONE', #86, #124 ) ;
#223 = ORIENTED_EDGE ( 'NONE', *, *, #70, .T. ) ;
#224 = EDGE_LOOP ( 'NONE', ( #64, #165, #240, #223 ) ) ;
#225 = EDGE_CURVE ( 'NONE', #10, #156, #28, .T. ) ;
#226 = CARTESIAN_POINT ( 'NONE',  ( -7.000000000000000000, 0.000000000000000000, 0.000000000000000000 ) ) ;
#227 = ORIENTED_EDGE ( 'NONE', *, *, #249, .F. ) ;
#228 = DIRECTION ( 'NONE',  ( -1.000000000000000000, 0.000000000000000000, 0.000000000000000000 ) ) ;
#229 = EDGE_CURVE ( 'NONE', #65, #89, #151, .T. ) ;
#230 = DATE_AND_TIME ( #130, #29 ) ;
#231 = COORDINATED_UNIVERSAL_TIME_OFFSET ( 1, 0, .AHEAD. ) ;
#232 = COORDINATED_UNIVERSAL_TIME_OFFSET ( 1, 0, .AHEAD. ) ;
#233 = AXIS2_PLACEMENT_3D ( 'NONE', #140, #11, #88 ) ;
#234 = ADVANCED_FACE ( 'NONE', ( #214 ), #101, .T. ) ;
#235 = CARTESIAN_POINT ( 'NONE',  ( 0.000000000000000000, 0.000000000000000000, 5.000000000000000000 ) ) ;
#236 = DATE_AND_TIME ( #195, #119 ) ;
#237 = DIRECTION ( 'NONE',  ( 1.000000000000000000, 0.000000000000000000, 0.000000000000000000 ) ) ;
#238 = EDGE_CURVE ( 'NONE', #10, #9, #41, .T. ) ;
#239 = ORIENTED_EDGE ( 'NONE', *, *, #238, .F. ) ;
#240 = ORIENTED_EDGE ( 'NONE', *, *, #238, .T. ) ;
#241 = APPROVAL_DATE_TIME ( #78, #108 ) ;
#242 = CARTESIAN_POINT ( 'NONE',  ( 0.000000000000000000, 0.000000000000000000, 630.0000000000000000 ) ) ;
#243 = FACE_OUTER_BOUND ( 'NONE', #110, .T. ) ;
#244 = ADVANCED_BREP_SHAPE_REPRESENTATION ( 'e3bd', ( #217, #216 ), #139 ) ;
#245 = CYLINDRICAL_SURFACE ( 'NONE', #18, 4.500000000000000888 ) ;
#246 = FACE_OUTER_BOUND ( 'NONE', #5, .T. ) ;
#247 = PERSON_AND_ORGANIZATION_ROLE ( 'creator' ) ;
#248 = DIRECTION ( 'NONE',  ( 1.000000000000000000, 0.000000000000000000, 0.000000000000000000 ) ) ;
#249 = EDGE_CURVE ( 'NONE', #186, #67, #93, .T. ) ;
#250 = VECTOR ( 'NONE', #82, 1000.000000000000000 ) ;
#251 = COORDINATED_UNIVERSAL_TIME_OFFSET ( 1, 0, .AHEAD. ) ;
#252 = ORIENTED_EDGE ( 'NONE', *, *, #158, .F. ) ;
#253 = PERSON_AND_ORGANIZATION_ROLE ( 'design_supplier' ) ;
#254 = CARTESIAN_POINT ( 'NONE',  ( 7.000000000000000000, 8.572527594031473190E-16, 0.000000000000000000 ) ) ;
#255 = CALENDAR_DATE ( 2023, 12, 2 ) ;
ENDSEC;
END-ISO-10303-21;
