ISO-10303-21;
HEADER;
FILE_DESCRIPTION (( 'STEP AP203' ),
    '1' );
FILE_NAME ('7cbd.STEP',
    '2022-07-07T09:45:39',
    ( '' ),
    ( '' ),
    'SwSTEP 2.0',
    'SolidWorks 2019',
    '' );
FILE_SCHEMA (( 'CONFIG_CONTROL_DESIGN' ));
ENDSEC;

DATA;
#1 = CARTESIAN_POINT ( 'NONE',  ( -9.000000000000000000, 0.000000000000000000, 0.000000000000000000 ) ) ;
#2 = EDGE_CURVE ( 'NONE', #245, #126, #235, .T. ) ;
#3 = CARTESIAN_POINT ( 'NONE',  ( 0.000000000000000000, 0.000000000000000000, 7.000000000000000000 ) ) ;
#4 = ORIENTED_EDGE ( 'NONE', *, *, #220, .F. ) ;
#5 = ORIENTED_EDGE ( 'NONE', *, *, #7, .T. ) ;
#6 = EDGE_LOOP ( 'NONE', ( #223, #55 ) ) ;
#7 = EDGE_CURVE ( 'NONE', #107, #168, #301, .T. ) ;
#8 = ORIENTED_EDGE ( 'NONE', *, *, #143, .F. ) ;
#9 = DIRECTION ( 'NONE',  ( -0.000000000000000000, -0.000000000000000000, -1.000000000000000000 ) ) ;
#10 = APPROVAL_PERSON_ORGANIZATION ( #282, #262, #46 ) ;
#11 = EDGE_LOOP ( 'NONE', ( #105, #131 ) ) ;
#12 = DIRECTION ( 'NONE',  ( 1.000000000000000000, 0.000000000000000000, 0.000000000000000000 ) ) ;
#13 = ORIENTED_EDGE ( 'NONE', *, *, #165, .T. ) ;
#14 = PERSON_AND_ORGANIZATION ( #297, #192 ) ;
#15 = CARTESIAN_POINT ( 'NONE',  ( 0.000000000000000000, 0.000000000000000000, 0.000000000000000000 ) ) ;
#16 = APPROVAL_STATUS ( 'not_yet_approved' ) ;
#17 = AXIS2_PLACEMENT_3D ( 'NONE', #42, #304, #270 ) ;
#18 = CYLINDRICAL_SURFACE ( 'NONE', #87, 6.000000000000000888 ) ;
#19 = DIRECTION ( 'NONE',  ( -0.000000000000000000, -0.000000000000000000, -1.000000000000000000 ) ) ;
#20 = CALENDAR_DATE ( 2022, 7, 7 ) ;
#21 = DIRECTION ( 'NONE',  ( 1.224646799147353207E-16, 1.000000000000000000, -0.000000000000000000 ) ) ;
#22 = DIRECTION ( 'NONE',  ( 0.000000000000000000, 0.000000000000000000, 1.000000000000000000 ) ) ;
#23 = DATE_TIME_ROLE ( 'classification_date' ) ;
#24 = AXIS2_PLACEMENT_3D ( 'NONE', #110, #83, #79 ) ;
#25 = AXIS2_PLACEMENT_3D ( 'NONE', #242, #30, #249 ) ;
#26 = ADVANCED_FACE ( 'NONE', ( #302 ), #18, .T. ) ;
#27 = ADVANCED_BREP_SHAPE_REPRESENTATION ( '7cbd', ( #251, #24 ), #290 ) ;
#28 = VERTEX_POINT ( 'NONE', #32 ) ;
#29 = AXIS2_PLACEMENT_3D ( 'NONE', #258, #189, #187 ) ;
#30 = DIRECTION ( 'NONE',  ( 0.000000000000000000, 0.000000000000000000, 1.000000000000000000 ) ) ;
#31 = EDGE_CURVE ( 'NONE', #191, #177, #213, .T. ) ;
#32 = CARTESIAN_POINT ( 'NONE',  ( 6.200000000000001066, 0.000000000000000000, 6.999999999999992006 ) ) ;
#33 = APPROVAL_ROLE ( '' ) ;
#34 = ORIENTED_EDGE ( 'NONE', *, *, #225, .T. ) ;
#35 = CARTESIAN_POINT ( 'NONE',  ( -6.200000000000001066, 7.592810154713590821E-16, 6.999999999999992006 ) ) ;
#36 = AXIS2_PLACEMENT_3D ( 'NONE', #3, #186, #70 ) ;
#37 = ORIENTED_EDGE ( 'NONE', *, *, #181, .F. ) ;
#38 = COORDINATED_UNIVERSAL_TIME_OFFSET ( 1, 0, .AHEAD. ) ;
#39 = EDGE_CURVE ( 'NONE', #299, #147, #293, .T. ) ;
#40 = DIRECTION ( 'NONE',  ( -1.000000000000000000, 0.000000000000000000, 0.000000000000000000 ) ) ;
#41 = DIRECTION ( 'NONE',  ( 0.000000000000000000, 0.000000000000000000, 1.000000000000000000 ) ) ;
#42 = CARTESIAN_POINT ( 'NONE',  ( 0.000000000000000000, 0.000000000000000000, 7.199999999999984190 ) ) ;
#43 = LINE ( 'NONE', #233, #211 ) ;
#44 = SECURITY_CLASSIFICATION ( '', '', #48 ) ;
#45 = DIRECTION ( 'NONE',  ( 0.000000000000000000, 0.000000000000000000, -1.000000000000000000 ) ) ;
#46 = APPROVAL_ROLE ( '' ) ;
#47 = CYLINDRICAL_SURFACE ( 'NONE', #157, 9.000000000000000000 ) ;
#48 = SECURITY_CLASSIFICATION_LEVEL ( 'unclassified' ) ;
#49 = FACE_OUTER_BOUND ( 'NONE', #97, .T. ) ;
#50 = CC_DESIGN_APPROVAL ( #292, ( #59 ) ) ;
#51 = ADVANCED_FACE ( 'NONE', ( #252 ), #111, .T. ) ;
#52 = ORIENTED_EDGE ( 'NONE', *, *, #225, .F. ) ;
#53 = ORIENTED_EDGE ( 'NONE', *, *, #143, .T. ) ;
#54 = APPROVAL_ROLE ( '' ) ;
#55 = ORIENTED_EDGE ( 'NONE', *, *, #84, .T. ) ;
#56 = MECHANICAL_CONTEXT ( 'NONE', #267, 'mechanical' ) ;
#57 = DIRECTION ( 'NONE',  ( 0.000000000000000000, 0.000000000000000000, 1.000000000000000000 ) ) ;
#58 = CARTESIAN_POINT ( 'NONE',  ( 0.000000000000000000, 0.000000000000000000, 1006.999999999999886 ) ) ;
#59 = PRODUCT_DEFINITION ( 'NEZNÁMÝ', '', #261, #142 ) ;
#60 = VECTOR ( 'NONE', #161, 1000.000000000000000 ) ;
#61 = DIRECTION ( 'NONE',  ( 0.000000000000000000, 0.000000000000000000, 1.000000000000000000 ) ) ;
#62 = DATE_TIME_ROLE ( 'creation_date' ) ;
#63 = FACE_OUTER_BOUND ( 'NONE', #120, .T. ) ;
#64 = APPROVAL_STATUS ( 'not_yet_approved' ) ;
#65 = DIRECTION ( 'NONE',  ( -0.000000000000000000, -0.000000000000000000, -1.000000000000000000 ) ) ;
#66 = CC_DESIGN_PERSON_AND_ORGANIZATION_ASSIGNMENT ( #257, #184, ( #44 ) ) ;
#67 = CARTESIAN_POINT ( 'NONE',  ( -6.000000000000000888, 0.000000000000000000, 1006.999999999999886 ) ) ;
#68 = CIRCLE ( 'NONE', #36, 6.200000000000001066 ) ;
#69 = CARTESIAN_POINT ( 'NONE',  ( -6.200000000000001066, 7.592810154713590821E-16, 7.199999999999984190 ) ) ;
#70 = DIRECTION ( 'NONE',  ( 1.000000000000000000, 0.000000000000000000, 0.000000000000000000 ) ) ;
#71 = CC_DESIGN_DATE_AND_TIME_ASSIGNMENT ( #300, #62, ( #59 ) ) ;
#72 = APPROVAL_PERSON_ORGANIZATION ( #152, #96, #54 ) ;
#73 = ORIENTED_EDGE ( 'NONE', *, *, #206, .T. ) ;
#74 = ADVANCED_FACE ( 'NONE', ( #63 ), #193, .F. ) ;
#75 = EDGE_LOOP ( 'NONE', ( #4, #101, #34, #128 ) ) ;
#76 = ORIENTED_EDGE ( 'NONE', *, *, #104, .F. ) ;
#77 = ADVANCED_FACE ( 'NONE', ( #109 ), #209, .F. ) ;
#78 = CLOSED_SHELL ( 'NONE', ( #77, #26, #116, #122, #137, #74, #51, #259, #85 ) ) ;
#79 = DIRECTION ( 'NONE',  ( 1.000000000000000000, 0.000000000000000000, 0.000000000000000000 ) ) ;
#80 = CARTESIAN_POINT ( 'NONE',  ( 0.000000000000000000, 0.000000000000000000, 7.000000000000000000 ) ) ;
#81 = DIRECTION ( 'NONE',  ( -0.000000000000000000, -0.000000000000000000, -1.000000000000000000 ) ) ;
#82 = EDGE_LOOP ( 'NONE', ( #8, #198, #248, #196 ) ) ;
#83 = DIRECTION ( 'NONE',  ( 0.000000000000000000, 0.000000000000000000, 1.000000000000000000 ) ) ;
#84 = EDGE_CURVE ( 'NONE', #177, #191, #93, .T. ) ;
#85 = ADVANCED_FACE ( 'NONE', ( #207 ), #163, .F. ) ;
#86 = ORIENTED_EDGE ( 'NONE', *, *, #31, .F. ) ;
#87 = AXIS2_PLACEMENT_3D ( 'NONE', #271, #228, #243 ) ;
#88 = LOCAL_TIME ( 11, 45, 39.00000000000000000, #199 ) ;
#89 = CARTESIAN_POINT ( 'NONE',  ( 0.000000000000000000, 0.000000000000000000, 0.000000000000000000 ) ) ;
#90 = ORIENTED_EDGE ( 'NONE', *, *, #247, .T. ) ;
#91 = LINE ( 'NONE', #95, #303 ) ;
#92 = CALENDAR_DATE ( 2022, 7, 7 ) ;
#93 = CIRCLE ( 'NONE', #166, 6.000000000000000888 ) ;
#94 = FACE_OUTER_BOUND ( 'NONE', #75, .T. ) ;
#95 = CARTESIAN_POINT ( 'NONE',  ( -6.000000000000000888, 0.000000000000000000, 1006.999999999999886 ) ) ;
#96 = APPROVAL ( #16, 'NEURÈENÝ' ) ;
#97 = EDGE_LOOP ( 'NONE', ( #37, #175, #98, #5 ) ) ;
#98 = ORIENTED_EDGE ( 'NONE', *, *, #278, .T. ) ;
#99 = AXIS2_PLACEMENT_3D ( 'NONE', #102, #41, #296 ) ;
#100 = EDGE_CURVE ( 'NONE', #177, #299, #234, .T. ) ;
#101 = ORIENTED_EDGE ( 'NONE', *, *, #181, .T. ) ;
#102 = CARTESIAN_POINT ( 'NONE',  ( 0.000000000000000000, 0.000000000000000000, 1006.999999999999886 ) ) ;
#103 = AXIS2_PLACEMENT_3D ( 'NONE', #158, #256, #45 ) ;
#104 = EDGE_CURVE ( 'NONE', #147, #217, #250, .T. ) ;
#105 = ORIENTED_EDGE ( 'NONE', *, *, #2, .T. ) ;
#106 =( NAMED_UNIT ( * ) PLANE_ANGLE_UNIT ( ) SI_UNIT ( $, .RADIAN. ) );
#107 = VERTEX_POINT ( 'NONE', #1 ) ;
#108 = APPLICATION_PROTOCOL_DEFINITION ( 'international standard', 'config_control_design', 1994, #289 ) ;
#109 = FACE_OUTER_BOUND ( 'NONE', #82, .T. ) ;
#110 = CARTESIAN_POINT ( 'NONE',  ( 0.000000000000000000, 0.000000000000000000, 0.000000000000000000 ) ) ;
#111 = CYLINDRICAL_SURFACE ( 'NONE', #121, 6.000000000000000888 ) ;
#112 = CARTESIAN_POINT ( 'NONE',  ( 9.000000000000000000, 1.102182119232617714E-15, 0.000000000000000000 ) ) ;
#113 = FACE_BOUND ( 'NONE', #215, .T. ) ;
#114 = CARTESIAN_POINT ( 'NONE',  ( 0.000000000000000000, 0.000000000000000000, 7.199999999999984190 ) ) ;
#115 = AXIS2_PLACEMENT_3D ( 'NONE', #114, #210, #156 ) ;
#116 = ADVANCED_FACE ( 'NONE', ( #94 ), #134, .T. ) ;
#117 = CARTESIAN_POINT ( 'NONE',  ( 0.000000000000000000, 0.000000000000000000, 7.000000000000000000 ) ) ;
#118 = EDGE_LOOP ( 'NONE', ( #263, #146, #205, #230 ) ) ;
#119 = ORIENTED_EDGE ( 'NONE', *, *, #7, .F. ) ;
#120 = EDGE_LOOP ( 'NONE', ( #119, #52 ) ) ;
#121 = AXIS2_PLACEMENT_3D ( 'NONE', #151, #221, #40 ) ;
#122 = ADVANCED_FACE ( 'NONE', ( #49 ), #47, .T. ) ;
#123 = LOCAL_TIME ( 11, 45, 39.00000000000000000, #144 ) ;
#124 = DIRECTION ( 'NONE',  ( 0.000000000000000000, 0.000000000000000000, 1.000000000000000000 ) ) ;
#125 = DIRECTION ( 'NONE',  ( 0.000000000000000000, 0.000000000000000000, 1.000000000000000000 ) ) ;
#126 = VERTEX_POINT ( 'NONE', #260 ) ;
#127 =( NAMED_UNIT ( * ) SI_UNIT ( $, .STERADIAN. ) SOLID_ANGLE_UNIT ( ) );
#128 = ORIENTED_EDGE ( 'NONE', *, *, #278, .F. ) ;
#129 = CALENDAR_DATE ( 2022, 7, 7 ) ;
#130 = DIRECTION ( 'NONE',  ( 1.000000000000000000, 0.000000000000000000, -0.000000000000000000 ) ) ;
#131 = ORIENTED_EDGE ( 'NONE', *, *, #220, .T. ) ;
#132 = AXIS2_PLACEMENT_3D ( 'NONE', #273, #61, #154 ) ;
#133 = PRODUCT ( '7cbd', '7cbd', '', ( #56 ) ) ;
#134 = CYLINDRICAL_SURFACE ( 'NONE', #167, 9.000000000000000000 ) ;
#135 = APPROVAL_DATE_TIME ( #188, #262 ) ;
#136 = CARTESIAN_POINT ( 'NONE',  ( 6.000000000000000888, 7.347880794884120722E-16, 1006.999999999999886 ) ) ;
#137 = ADVANCED_FACE ( 'NONE', ( #113, #236 ), #183, .T. ) ;
#138 = DIRECTION ( 'NONE',  ( 1.000000000000000000, 0.000000000000000000, 0.000000000000000000 ) ) ;
#139 = DIRECTION ( 'NONE',  ( -1.000000000000000000, 0.000000000000000000, 0.000000000000000000 ) ) ;
#140 = CIRCLE ( 'NONE', #238, 9.000000000000000000 ) ;
#141 = APPROVAL_PERSON_ORGANIZATION ( #150, #292, #33 ) ;
#142 = DESIGN_CONTEXT ( 'detailed design', #289, 'design' ) ;
#143 = EDGE_CURVE ( 'NONE', #147, #299, #145, .T. ) ;
#144 = COORDINATED_UNIVERSAL_TIME_OFFSET ( 1, 0, .AHEAD. ) ;
#145 = CIRCLE ( 'NONE', #115, 6.000000000000000888 ) ;
#146 = ORIENTED_EDGE ( 'NONE', *, *, #100, .T. ) ;
#147 = VERTEX_POINT ( 'NONE', #254 ) ;
#148 =( LENGTH_UNIT ( ) NAMED_UNIT ( * ) SI_UNIT ( .MILLI., .METRE. ) );
#149 = DIRECTION ( 'NONE',  ( 1.000000000000000000, 0.000000000000000000, 0.000000000000000000 ) ) ;
#150 = PERSON_AND_ORGANIZATION ( #297, #192 ) ;
#151 = CARTESIAN_POINT ( 'NONE',  ( 0.000000000000000000, 0.000000000000000000, 1006.999999999999886 ) ) ;
#152 = PERSON_AND_ORGANIZATION ( #297, #192 ) ;
#153 = CC_DESIGN_PERSON_AND_ORGANIZATION_ASSIGNMENT ( #159, #277, ( #261 ) ) ;
#154 = DIRECTION ( 'NONE',  ( 1.000000000000000000, 0.000000000000000000, 0.000000000000000000 ) ) ;
#155 = COORDINATED_UNIVERSAL_TIME_OFFSET ( 1, 0, .AHEAD. ) ;
#156 = DIRECTION ( 'NONE',  ( 1.000000000000000000, 0.000000000000000000, 0.000000000000000000 ) ) ;
#157 = AXIS2_PLACEMENT_3D ( 'NONE', #212, #65, #139 ) ;
#158 = CARTESIAN_POINT ( 'NONE',  ( 6.200000000000001066, 0.000000000000000000, 7.199999999999984190 ) ) ;
#159 = PERSON_AND_ORGANIZATION ( #297, #192 ) ;
#160 = CC_DESIGN_PERSON_AND_ORGANIZATION_ASSIGNMENT ( #14, #170, ( #59 ) ) ;
#161 = DIRECTION ( 'NONE',  ( -0.000000000000000000, -0.000000000000000000, -1.000000000000000000 ) ) ;
#162 = DIRECTION ( 'NONE',  ( -0.000000000000000000, -0.000000000000000000, -1.000000000000000000 ) ) ;
#163 = TOROIDAL_SURFACE ( 'NONE', #29, 6.200000000000001066, 0.2000000000000000111 ) ;
#164 = CC_DESIGN_APPROVAL ( #96, ( #261 ) ) ;
#165 = EDGE_CURVE ( 'NONE', #28, #217, #68, .T. ) ;
#166 = AXIS2_PLACEMENT_3D ( 'NONE', #202, #57, #138 ) ;
#167 = AXIS2_PLACEMENT_3D ( 'NONE', #117, #281, #279 ) ;
#168 = VERTEX_POINT ( 'NONE', #112 ) ;
#169 = EDGE_CURVE ( 'NONE', #191, #147, #91, .T. ) ;
#170 = PERSON_AND_ORGANIZATION_ROLE ( 'creator' ) ;
#171 = CC_DESIGN_DATE_AND_TIME_ASSIGNMENT ( #208, #23, ( #44 ) ) ;
#172 = PERSON_AND_ORGANIZATION ( #297, #192 ) ;
#173 = LOCAL_TIME ( 11, 45, 39.00000000000000000, #155 ) ;
#174 = UNCERTAINTY_MEASURE_WITH_UNIT (LENGTH_MEASURE( 1.000000000000000082E-05 ), #148, 'distance_accuracy_value', 'NONE');
#175 = ORIENTED_EDGE ( 'NONE', *, *, #2, .F. ) ;
#176 = CARTESIAN_POINT ( 'NONE',  ( 0.000000000000000000, 0.000000000000000000, 7.000000000000000000 ) ) ;
#177 = VERTEX_POINT ( 'NONE', #239 ) ;
#178 = DIRECTION ( 'NONE',  ( 1.000000000000000000, 0.000000000000000000, 0.000000000000000000 ) ) ;
#179 = PERSON_AND_ORGANIZATION_ROLE ( 'design_owner' ) ;
#180 = AXIS2_PLACEMENT_3D ( 'NONE', #176, #9, #12 ) ;
#181 = EDGE_CURVE ( 'NONE', #126, #168, #43, .T. ) ;
#182 = DIRECTION ( 'NONE',  ( 0.000000000000000000, 0.000000000000000000, 1.000000000000000000 ) ) ;
#183 = PLANE ( 'NONE',  #275 ) ;
#184 = PERSON_AND_ORGANIZATION_ROLE ( 'classification_officer' ) ;
#185 = AXIS2_PLACEMENT_3D ( 'NONE', #89, #295, #130 ) ;
#186 = DIRECTION ( 'NONE',  ( -0.000000000000000000, -0.000000000000000000, -1.000000000000000000 ) ) ;
#187 = DIRECTION ( 'NONE',  ( 1.000000000000000000, 0.000000000000000000, 0.000000000000000000 ) ) ;
#188 = DATE_AND_TIME ( #92, #204 ) ;
#189 = DIRECTION ( 'NONE',  ( 0.000000000000000000, 0.000000000000000000, 1.000000000000000000 ) ) ;
#190 = AXIS2_PLACEMENT_3D ( 'NONE', #80, #182, #178 ) ;
#191 = VERTEX_POINT ( 'NONE', #67 ) ;
#192 = ORGANIZATION ( 'NEURÈENÝ', 'NEURÈENÝ', '' ) ;
#193 = PLANE ( 'NONE',  #185 ) ;
#194 = LINE ( 'NONE', #203, #284 ) ;
#195 = AXIS2_PLACEMENT_3D ( 'NONE', #69, #21, #287 ) ;
#196 = ORIENTED_EDGE ( 'NONE', *, *, #206, .F. ) ;
#197 = CARTESIAN_POINT ( 'NONE',  ( 0.000000000000000000, 0.000000000000000000, 0.000000000000000000 ) ) ;
#198 = ORIENTED_EDGE ( 'NONE', *, *, #104, .T. ) ;
#199 = COORDINATED_UNIVERSAL_TIME_OFFSET ( 1, 0, .AHEAD. ) ;
#200 = CC_DESIGN_PERSON_AND_ORGANIZATION_ASSIGNMENT ( #255, #231, ( #261 ) ) ;
#201 = AXIS2_PLACEMENT_3D ( 'NONE', #58, #124, #149 ) ;
#202 = CARTESIAN_POINT ( 'NONE',  ( 0.000000000000000000, 0.000000000000000000, 1006.999999999999886 ) ) ;
#203 = CARTESIAN_POINT ( 'NONE',  ( -9.000000000000000000, 0.000000000000000000, 7.000000000000000000 ) ) ;
#204 = LOCAL_TIME ( 11, 45, 39.00000000000000000, #253 ) ;
#205 = ORIENTED_EDGE ( 'NONE', *, *, #39, .T. ) ;
#206 = EDGE_CURVE ( 'NONE', #299, #28, #283, .T. ) ;
#207 = FACE_OUTER_BOUND ( 'NONE', #291, .T. ) ;
#208 = DATE_AND_TIME ( #20, #173 ) ;
#209 = TOROIDAL_SURFACE ( 'NONE', #17, 6.200000000000001066, 0.2000000000000000111 ) ;
#210 = DIRECTION ( 'NONE',  ( 0.000000000000000000, 0.000000000000000000, 1.000000000000000000 ) ) ;
#211 = VECTOR ( 'NONE', #19, 1000.000000000000000 ) ;
#212 = CARTESIAN_POINT ( 'NONE',  ( 0.000000000000000000, 0.000000000000000000, 7.000000000000000000 ) ) ;
#213 = CIRCLE ( 'NONE', #201, 6.000000000000000888 ) ;
#214 = ORIENTED_EDGE ( 'NONE', *, *, #39, .F. ) ;
#215 = EDGE_LOOP ( 'NONE', ( #13, #90 ) ) ;
#216 = ORIENTED_EDGE ( 'NONE', *, *, #100, .F. ) ;
#217 = VERTEX_POINT ( 'NONE', #35 ) ;
#218 = LOCAL_TIME ( 11, 45, 39.00000000000000000, #38 ) ;
#219 = PLANE ( 'NONE',  #99 ) ;
#220 = EDGE_CURVE ( 'NONE', #126, #245, #294, .T. ) ;
#221 = DIRECTION ( 'NONE',  ( -0.000000000000000000, -0.000000000000000000, -1.000000000000000000 ) ) ;
#222 = DIRECTION ( 'NONE',  ( 1.000000000000000000, 0.000000000000000000, 0.000000000000000000 ) ) ;
#223 = ORIENTED_EDGE ( 'NONE', *, *, #31, .T. ) ;
#224 = CIRCLE ( 'NONE', #180, 6.200000000000001066 ) ;
#225 = EDGE_CURVE ( 'NONE', #168, #107, #140, .T. ) ;
#226 = ORIENTED_EDGE ( 'NONE', *, *, #247, .F. ) ;
#227 = DATE_AND_TIME ( #129, #218 ) ;
#228 = DIRECTION ( 'NONE',  ( -0.000000000000000000, -0.000000000000000000, -1.000000000000000000 ) ) ;
#229 = FACE_OUTER_BOUND ( 'NONE', #6, .T. ) ;
#230 = ORIENTED_EDGE ( 'NONE', *, *, #169, .F. ) ;
#231 = PERSON_AND_ORGANIZATION_ROLE ( 'design_supplier' ) ;
#232 = CC_DESIGN_PERSON_AND_ORGANIZATION_ASSIGNMENT ( #172, #179, ( #133 ) ) ;
#233 = CARTESIAN_POINT ( 'NONE',  ( 9.000000000000000000, 1.102182119232617714E-15, 7.000000000000000000 ) ) ;
#234 = LINE ( 'NONE', #136, #60 ) ;
#235 = CIRCLE ( 'NONE', #190, 9.000000000000000000 ) ;
#236 = FACE_OUTER_BOUND ( 'NONE', #11, .T. ) ;
#237 = DATE_AND_TIME ( #280, #123 ) ;
#238 = AXIS2_PLACEMENT_3D ( 'NONE', #197, #125, #222 ) ;
#239 = CARTESIAN_POINT ( 'NONE',  ( 6.000000000000000888, 7.347880794884120722E-16, 1006.999999999999886 ) ) ;
#240 = PRODUCT_RELATED_PRODUCT_CATEGORY ( 'detail', '', ( #133 ) ) ;
#241 = CC_DESIGN_APPROVAL ( #262, ( #44 ) ) ;
#242 = CARTESIAN_POINT ( 'NONE',  ( 0.000000000000000000, 0.000000000000000000, 7.000000000000000000 ) ) ;
#243 = DIRECTION ( 'NONE',  ( -1.000000000000000000, 0.000000000000000000, 0.000000000000000000 ) ) ;
#244 = APPROVAL_STATUS ( 'not_yet_approved' ) ;
#245 = VERTEX_POINT ( 'NONE', #272 ) ;
#246 = CARTESIAN_POINT ( 'NONE',  ( 6.000000000000000888, 7.347880794884120722E-16, 7.199999999999984190 ) ) ;
#247 = EDGE_CURVE ( 'NONE', #217, #28, #224, .T. ) ;
#248 = ORIENTED_EDGE ( 'NONE', *, *, #165, .F. ) ;
#249 = DIRECTION ( 'NONE',  ( 1.000000000000000000, 0.000000000000000000, 0.000000000000000000 ) ) ;
#250 = CIRCLE ( 'NONE', #195, 0.1999999999999996503 ) ;
#251 = MANIFOLD_SOLID_BREP ( 'Zaoblit1', #78 ) ;
#252 = FACE_OUTER_BOUND ( 'NONE', #264, .T. ) ;
#253 = COORDINATED_UNIVERSAL_TIME_OFFSET ( 1, 0, .AHEAD. ) ;
#254 = CARTESIAN_POINT ( 'NONE',  ( -6.000000000000000888, 0.000000000000000000, 7.199999999999984190 ) ) ;
#255 = PERSON_AND_ORGANIZATION ( #297, #192 ) ;
#256 = DIRECTION ( 'NONE',  ( 0.000000000000000000, -1.000000000000000000, 0.000000000000000000 ) ) ;
#257 = PERSON_AND_ORGANIZATION ( #297, #192 ) ;
#258 = CARTESIAN_POINT ( 'NONE',  ( 0.000000000000000000, 0.000000000000000000, 7.199999999999984190 ) ) ;
#259 = ADVANCED_FACE ( 'NONE', ( #229 ), #219, .T. ) ;
#260 = CARTESIAN_POINT ( 'NONE',  ( 9.000000000000000000, 1.102182119232617714E-15, 7.000000000000000000 ) ) ;
#261 = PRODUCT_DEFINITION_FORMATION_WITH_SPECIFIED_SOURCE ( 'LIBOVOLNÝ', '', #133, .NOT_KNOWN. ) ;
#262 = APPROVAL ( #64, 'NEURÈENÝ' ) ;
#263 = ORIENTED_EDGE ( 'NONE', *, *, #84, .F. ) ;
#264 = EDGE_LOOP ( 'NONE', ( #216, #86, #268, #53 ) ) ;
#265 = CALENDAR_DATE ( 2022, 7, 7 ) ;
#266 = AXIS2_PLACEMENT_3D ( 'NONE', #15, #276, #298 ) ;
#267 = APPLICATION_CONTEXT ( 'configuration controlled 3d designs of mechanical parts and assemblies' ) ;
#268 = ORIENTED_EDGE ( 'NONE', *, *, #169, .T. ) ;
#269 = APPLICATION_PROTOCOL_DEFINITION ( 'international standard', 'config_control_design', 1994, #267 ) ;
#270 = DIRECTION ( 'NONE',  ( 1.000000000000000000, 0.000000000000000000, 0.000000000000000000 ) ) ;
#271 = CARTESIAN_POINT ( 'NONE',  ( 0.000000000000000000, 0.000000000000000000, 1006.999999999999886 ) ) ;
#272 = CARTESIAN_POINT ( 'NONE',  ( -9.000000000000000000, 0.000000000000000000, 7.000000000000000000 ) ) ;
#273 = CARTESIAN_POINT ( 'NONE',  ( 0.000000000000000000, 0.000000000000000000, 7.199999999999984190 ) ) ;
#274 = APPROVAL_DATE_TIME ( #227, #292 ) ;
#275 = AXIS2_PLACEMENT_3D ( 'NONE', #285, #22, #307 ) ;
#276 = DIRECTION ( 'NONE',  ( 0.000000000000000000, 0.000000000000000000, 1.000000000000000000 ) ) ;
#277 = PERSON_AND_ORGANIZATION_ROLE ( 'creator' ) ;
#278 = EDGE_CURVE ( 'NONE', #245, #107, #194, .T. ) ;
#279 = DIRECTION ( 'NONE',  ( -1.000000000000000000, 0.000000000000000000, 0.000000000000000000 ) ) ;
#280 = CALENDAR_DATE ( 2022, 7, 7 ) ;
#281 = DIRECTION ( 'NONE',  ( -0.000000000000000000, -0.000000000000000000, -1.000000000000000000 ) ) ;
#282 = PERSON_AND_ORGANIZATION ( #297, #192 ) ;
#283 = CIRCLE ( 'NONE', #103, 0.1999999999999996503 ) ;
#284 = VECTOR ( 'NONE', #81, 1000.000000000000000 ) ;
#285 = CARTESIAN_POINT ( 'NONE',  ( 0.000000000000000000, 0.000000000000000000, 7.000000000000000000 ) ) ;
#286 = SHAPE_DEFINITION_REPRESENTATION ( #306, #27 ) ;
#287 = DIRECTION ( 'NONE',  ( -1.000000000000000000, 1.224646799147353454E-16, 0.000000000000000000 ) ) ;
#288 = CC_DESIGN_SECURITY_CLASSIFICATION ( #44, ( #261 ) ) ;
#289 = APPLICATION_CONTEXT ( 'configuration controlled 3d designs of mechanical parts and assemblies' ) ;
#290 =( GEOMETRIC_REPRESENTATION_CONTEXT ( 3 ) GLOBAL_UNCERTAINTY_ASSIGNED_CONTEXT ( ( #174 ) ) GLOBAL_UNIT_ASSIGNED_CONTEXT ( ( #148, #106, #127 ) ) REPRESENTATION_CONTEXT ( 'NONE', 'WORKASPACE' ) );
#291 = EDGE_LOOP ( 'NONE', ( #76, #214, #73, #226 ) ) ;
#292 = APPROVAL ( #244, 'NEURÈENÝ' ) ;
#293 = CIRCLE ( 'NONE', #132, 6.000000000000000888 ) ;
#294 = CIRCLE ( 'NONE', #25, 9.000000000000000000 ) ;
#295 = DIRECTION ( 'NONE',  ( 0.000000000000000000, 0.000000000000000000, 1.000000000000000000 ) ) ;
#296 = DIRECTION ( 'NONE',  ( 1.000000000000000000, 0.000000000000000000, -0.000000000000000000 ) ) ;
#297 = PERSON ( 'NEURÈENÝ', 'NEURÈENÝ', 'NEURÈENÝ', ('NEURÈENÝ'), ('NEURÈENÝ'), ('NEURÈENÝ') ) ;
#298 = DIRECTION ( 'NONE',  ( 1.000000000000000000, 0.000000000000000000, 0.000000000000000000 ) ) ;
#299 = VERTEX_POINT ( 'NONE', #246 ) ;
#300 = DATE_AND_TIME ( #265, #88 ) ;
#301 = CIRCLE ( 'NONE', #266, 9.000000000000000000 ) ;
#302 = FACE_OUTER_BOUND ( 'NONE', #118, .T. ) ;
#303 = VECTOR ( 'NONE', #162, 1000.000000000000000 ) ;
#304 = DIRECTION ( 'NONE',  ( 0.000000000000000000, 0.000000000000000000, 1.000000000000000000 ) ) ;
#305 = APPROVAL_DATE_TIME ( #237, #96 ) ;
#306 = PRODUCT_DEFINITION_SHAPE ( 'NONE', 'NONE',  #59 ) ;
#307 = DIRECTION ( 'NONE',  ( 1.000000000000000000, 0.000000000000000000, -0.000000000000000000 ) ) ;
ENDSEC;
END-ISO-10303-21;
