ISO-10303-21;
HEADER;
FILE_DESCRIPTION (( 'STEP AP203' ),
    '1' );
FILE_NAME ('115c.STEP',
    '2022-10-03T09:12:16',
    ( '' ),
    ( '' ),
    'SwSTEP 2.0',
    'SolidWorks 2019',
    '' );
FILE_SCHEMA (( 'CONFIG_CONTROL_DESIGN' ));
ENDSEC;

DATA;
#1 = AXIS2_PLACEMENT_3D ( 'NONE', #70, #170, #95 ) ;
#2 = ORIENTED_EDGE ( 'NONE', *, *, #212, .T. ) ;
#3 = ORIENTED_EDGE ( 'NONE', *, *, #177, .T. ) ;
#4 = CALENDAR_DATE ( 2022, 3, 10 ) ;
#5 = ADVANCED_FACE ( 'NONE', ( #208 ), #246, .T. ) ;
#6 = EDGE_CURVE ( 'NONE', #154, #274, #241, .T. ) ;
#7 = ORIENTED_EDGE ( 'NONE', *, *, #177, .F. ) ;
#8 = PERSON_AND_ORGANIZATION ( #235, #14 ) ;
#9 = CIRCLE ( 'NONE', #148, 0.1999999999999996503 ) ;
#10 = CARTESIAN_POINT ( 'NONE',  ( 0.000000000000000000, 0.000000000000000000, 0.000000000000000000 ) ) ;
#11 = APPROVAL_STATUS ( 'not_yet_approved' ) ;
#12 = APPROVAL_ROLE ( '' ) ;
#13 = DIRECTION ( 'NONE',  ( 0.000000000000000000, 0.000000000000000000, 1.000000000000000000 ) ) ;
#14 = ORGANIZATION ( 'NEURÈENÝ', 'NEURÈENÝ', '' ) ;
#15 = VERTEX_POINT ( 'NONE', #63 ) ;
#16 = CC_DESIGN_PERSON_AND_ORGANIZATION_ASSIGNMENT ( #273, #33, ( #264 ) ) ;
#17 = LINE ( 'NONE', #259, #180 ) ;
#18 = FACE_OUTER_BOUND ( 'NONE', #104, .T. ) ;
#19 = AXIS2_PLACEMENT_3D ( 'NONE', #41, #22, #192 ) ;
#20 = FACE_OUTER_BOUND ( 'NONE', #28, .T. ) ;
#21 = ADVANCED_FACE ( 'NONE', ( #251, #39 ), #136, .T. ) ;
#22 = DIRECTION ( 'NONE',  ( 0.000000000000000000, 0.000000000000000000, 1.000000000000000000 ) ) ;
#23 = ADVANCED_BREP_SHAPE_REPRESENTATION ( '115c', ( #155, #105 ), #256 ) ;
#24 = DIRECTION ( 'NONE',  ( 0.000000000000000000, 0.000000000000000000, 1.000000000000000000 ) ) ;
#25 = DIRECTION ( 'NONE',  ( -1.000000000000000000, 1.224646799147358384E-16, 0.000000000000000000 ) ) ;
#26 = ORIENTED_EDGE ( 'NONE', *, *, #141, .F. ) ;
#27 = LINE ( 'NONE', #50, #44 ) ;
#28 = EDGE_LOOP ( 'NONE', ( #214, #84, #26, #213 ) ) ;
#29 = CC_DESIGN_PERSON_AND_ORGANIZATION_ASSIGNMENT ( #247, #158, ( #264 ) ) ;
#30 = APPROVAL_STATUS ( 'not_yet_approved' ) ;
#31 = FACE_OUTER_BOUND ( 'NONE', #151, .T. ) ;
#32 = EDGE_LOOP ( 'NONE', ( #113, #242 ) ) ;
#33 = PERSON_AND_ORGANIZATION_ROLE ( 'creator' ) ;
#34 = DATE_TIME_ROLE ( 'creation_date' ) ;
#35 = AXIS2_PLACEMENT_3D ( 'NONE', #74, #234, #47 ) ;
#36 = DIRECTION ( 'NONE',  ( 0.000000000000000000, 0.000000000000000000, 1.000000000000000000 ) ) ;
#37 = APPLICATION_PROTOCOL_DEFINITION ( 'international standard', 'config_control_design', 1994, #165 ) ;
#38 = ORIENTED_EDGE ( 'NONE', *, *, #119, .F. ) ;
#39 = FACE_OUTER_BOUND ( 'NONE', #303, .T. ) ;
#40 = CIRCLE ( 'NONE', #237, 7.150000000000001243 ) ;
#41 = CARTESIAN_POINT ( 'NONE',  ( 0.000000000000000000, 0.000000000000000000, 10.00000000000000000 ) ) ;
#42 = DIRECTION ( 'NONE',  ( -0.000000000000000000, -0.000000000000000000, -1.000000000000000000 ) ) ;
#43 = CC_DESIGN_PERSON_AND_ORGANIZATION_ASSIGNMENT ( #88, #226, ( #266 ) ) ;
#44 = VECTOR ( 'NONE', #118, 1000.000000000000000 ) ;
#45 = CARTESIAN_POINT ( 'NONE',  ( 0.000000000000000000, 0.000000000000000000, 10.00000000000000000 ) ) ;
#46 = ORIENTED_EDGE ( 'NONE', *, *, #119, .T. ) ;
#47 = DIRECTION ( 'NONE',  ( 1.000000000000000000, 0.000000000000000000, 0.000000000000000000 ) ) ;
#48 = AXIS2_PLACEMENT_3D ( 'NONE', #267, #279, #91 ) ;
#49 = CC_DESIGN_DATE_AND_TIME_ASSIGNMENT ( #85, #34, ( #266 ) ) ;
#50 = CARTESIAN_POINT ( 'NONE',  ( 11.00000000000000000, 1.347111479062088405E-15, 10.00000000000000000 ) ) ;
#51 = ORIENTED_EDGE ( 'NONE', *, *, #79, .F. ) ;
#52 = CYLINDRICAL_SURFACE ( 'NONE', #197, 6.950000000000001066 ) ;
#53 = DIRECTION ( 'NONE',  ( 0.000000000000000000, -1.000000000000000000, 0.000000000000000000 ) ) ;
#54 = ORIENTED_EDGE ( 'NONE', *, *, #111, .F. ) ;
#55 = AXIS2_PLACEMENT_3D ( 'NONE', #134, #13, #183 ) ;
#56 = COORDINATED_UNIVERSAL_TIME_OFFSET ( 1, 0, .AHEAD. ) ;
#57 = ORIENTED_EDGE ( 'NONE', *, *, #111, .T. ) ;
#58 = ORIENTED_EDGE ( 'NONE', *, *, #166, .T. ) ;
#59 = APPROVAL_STATUS ( 'not_yet_approved' ) ;
#60 = CALENDAR_DATE ( 2022, 3, 10 ) ;
#61 = AXIS2_PLACEMENT_3D ( 'NONE', #137, #187, #236 ) ;
#62 = MECHANICAL_CONTEXT ( 'NONE', #165, 'mechanical' ) ;
#63 = CARTESIAN_POINT ( 'NONE',  ( -7.150000000000001243, 8.756224613903575518E-16, 9.999999999999992895 ) ) ;
#64 = EDGE_CURVE ( 'NONE', #81, #90, #206, .T. ) ;
#65 = ADVANCED_FACE ( 'NONE', ( #189 ), #140, .T. ) ;
#66 = CARTESIAN_POINT ( 'NONE',  ( 0.000000000000000000, 0.000000000000000000, 0.000000000000000000 ) ) ;
#67 = CC_DESIGN_APPROVAL ( #98, ( #266 ) ) ;
#68 = CARTESIAN_POINT ( 'NONE',  ( -6.950000000000001066, 0.000000000000000000, 260.0000000000000000 ) ) ;
#69 = DIRECTION ( 'NONE',  ( -0.000000000000000000, -0.000000000000000000, -1.000000000000000000 ) ) ;
#70 = CARTESIAN_POINT ( 'NONE',  ( 0.000000000000000000, 0.000000000000000000, 10.00000000000000000 ) ) ;
#71 = UNCERTAINTY_MEASURE_WITH_UNIT (LENGTH_MEASURE( 1.000000000000000082E-05 ), #265, 'distance_accuracy_value', 'NONE');
#72 = CIRCLE ( 'NONE', #297, 0.2000000000000005107 ) ;
#73 = SECURITY_CLASSIFICATION ( '', '', #156 ) ;
#74 = CARTESIAN_POINT ( 'NONE',  ( 0.000000000000000000, 0.000000000000000000, 10.00000000000000000 ) ) ;
#75 = APPROVAL ( #11, 'NEURÈENÝ' ) ;
#76 = DIRECTION ( 'NONE',  ( -0.000000000000000000, -0.000000000000000000, -1.000000000000000000 ) ) ;
#77 = CARTESIAN_POINT ( 'NONE',  ( 0.000000000000000000, 0.000000000000000000, 0.000000000000000000 ) ) ;
#78 = LINE ( 'NONE', #271, #302 ) ;
#79 = EDGE_CURVE ( 'NONE', #149, #80, #277, .T. ) ;
#80 = VERTEX_POINT ( 'NONE', #283 ) ;
#81 = VERTEX_POINT ( 'NONE', #168 ) ;
#82 = TOROIDAL_SURFACE ( 'NONE', #252, 7.150000000000001243, 0.2000000000000000111 ) ;
#83 = COORDINATED_UNIVERSAL_TIME_OFFSET ( 1, 0, .AHEAD. ) ;
#84 = ORIENTED_EDGE ( 'NONE', *, *, #275, .T. ) ;
#85 = DATE_AND_TIME ( #60, #281 ) ;
#86 = COORDINATED_UNIVERSAL_TIME_OFFSET ( 1, 0, .AHEAD. ) ;
#87 = CALENDAR_DATE ( 2022, 3, 10 ) ;
#88 = PERSON_AND_ORGANIZATION ( #235, #14 ) ;
#89 = EDGE_CURVE ( 'NONE', #90, #81, #172, .T. ) ;
#90 = VERTEX_POINT ( 'NONE', #261 ) ;
#91 = DIRECTION ( 'NONE',  ( 1.000000000000000000, 0.000000000000000000, 0.000000000000000000 ) ) ;
#92 = AXIS2_PLACEMENT_3D ( 'NONE', #268, #217, #144 ) ;
#93 = DIRECTION ( 'NONE',  ( 0.000000000000000000, 0.000000000000000000, 1.000000000000000000 ) ) ;
#94 = ORIENTED_EDGE ( 'NONE', *, *, #89, .F. ) ;
#95 = DIRECTION ( 'NONE',  ( -1.000000000000000000, 0.000000000000000000, 0.000000000000000000 ) ) ;
#96 = AXIS2_PLACEMENT_3D ( 'NONE', #66, #210, #164 ) ;
#97 = CARTESIAN_POINT ( 'NONE',  ( 0.000000000000000000, 0.000000000000000000, 10.19999999999998685 ) ) ;
#98 = APPROVAL ( #30, 'NEURÈENÝ' ) ;
#99 = DIRECTION ( 'NONE',  ( 1.000000000000000000, 0.000000000000000000, 0.000000000000000000 ) ) ;
#100 = CC_DESIGN_PERSON_AND_ORGANIZATION_ASSIGNMENT ( #228, #245, ( #219 ) ) ;
#101 = EDGE_LOOP ( 'NONE', ( #54, #94, #3, #244 ) ) ;
#102 = VERTEX_POINT ( 'NONE', #188 ) ;
#103 = PERSON_AND_ORGANIZATION_ROLE ( 'classification_officer' ) ;
#104 = EDGE_LOOP ( 'NONE', ( #294, #51, #2, #175 ) ) ;
#105 = AXIS2_PLACEMENT_3D ( 'NONE', #10, #36, #133 ) ;
#106 = CALENDAR_DATE ( 2022, 3, 10 ) ;
#107 = EDGE_CURVE ( 'NONE', #15, #102, #40, .T. ) ;
#108 = DATE_AND_TIME ( #106, #181 ) ;
#109 = APPROVAL_DATE_TIME ( #225, #98 ) ;
#110 = CYLINDRICAL_SURFACE ( 'NONE', #163, 6.950000000000001066 ) ;
#111 = EDGE_CURVE ( 'NONE', #81, #274, #17, .T. ) ;
#112 = AXIS2_PLACEMENT_3D ( 'NONE', #45, #254, #138 ) ;
#113 = ORIENTED_EDGE ( 'NONE', *, *, #239, .F. ) ;
#114 = ORIENTED_EDGE ( 'NONE', *, *, #278, .F. ) ;
#115 = CYLINDRICAL_SURFACE ( 'NONE', #61, 11.00000000000000000 ) ;
#116 = CLOSED_SHELL ( 'NONE', ( #185, #207, #65, #152, #21, #159, #296, #5, #263 ) ) ;
#117 = FACE_OUTER_BOUND ( 'NONE', #32, .T. ) ;
#118 = DIRECTION ( 'NONE',  ( -0.000000000000000000, -0.000000000000000000, -1.000000000000000000 ) ) ;
#119 = EDGE_CURVE ( 'NONE', #80, #149, #124, .T. ) ;
#120 = DIRECTION ( 'NONE',  ( 1.000000000000000000, 0.000000000000000000, 0.000000000000000000 ) ) ;
#121 = CIRCLE ( 'NONE', #92, 6.950000000000001066 ) ;
#122 = DIRECTION ( 'NONE',  ( 1.224646799147353207E-16, 1.000000000000000000, -0.000000000000000000 ) ) ;
#123 = APPLICATION_CONTEXT ( 'configuration controlled 3d designs of mechanical parts and assemblies' ) ;
#124 = CIRCLE ( 'NONE', #112, 11.00000000000000000 ) ;
#125 = DIRECTION ( 'NONE',  ( 0.000000000000000000, 0.000000000000000000, 1.000000000000000000 ) ) ;
#126 = ORIENTED_EDGE ( 'NONE', *, *, #262, .T. ) ;
#127 = PERSON_AND_ORGANIZATION ( #235, #14 ) ;
#128 = ORIENTED_EDGE ( 'NONE', *, *, #89, .T. ) ;
#129 =( NAMED_UNIT ( * ) PLANE_ANGLE_UNIT ( ) SI_UNIT ( $, .RADIAN. ) );
#130 = AXIS2_PLACEMENT_3D ( 'NONE', #231, #300, #146 ) ;
#131 = LOCAL_TIME ( 11, 12, 16.00000000000000000, #56 ) ;
#132 = PERSON_AND_ORGANIZATION ( #235, #14 ) ;
#133 = DIRECTION ( 'NONE',  ( 1.000000000000000000, 0.000000000000000000, 0.000000000000000000 ) ) ;
#134 = CARTESIAN_POINT ( 'NONE',  ( 0.000000000000000000, 0.000000000000000000, 260.0000000000000000 ) ) ;
#135 = CIRCLE ( 'NONE', #35, 7.150000000000001243 ) ;
#136 = PLANE ( 'NONE',  #130 ) ;
#137 = CARTESIAN_POINT ( 'NONE',  ( 0.000000000000000000, 0.000000000000000000, 10.00000000000000000 ) ) ;
#138 = DIRECTION ( 'NONE',  ( 1.000000000000000000, 0.000000000000000000, 0.000000000000000000 ) ) ;
#139 = AXIS2_PLACEMENT_3D ( 'NONE', #255, #306, #280 ) ;
#140 = CYLINDRICAL_SURFACE ( 'NONE', #1, 11.00000000000000000 ) ;
#141 = EDGE_CURVE ( 'NONE', #102, #15, #135, .T. ) ;
#142 = CARTESIAN_POINT ( 'NONE',  ( -11.00000000000000000, 0.000000000000000000, 10.00000000000000000 ) ) ;
#143 = APPROVAL_PERSON_ORGANIZATION ( #127, #248, #223 ) ;
#144 = DIRECTION ( 'NONE',  ( 1.000000000000000000, 0.000000000000000000, 0.000000000000000000 ) ) ;
#145 = DIRECTION ( 'NONE',  ( 1.000000000000000000, 0.000000000000000000, 0.000000000000000000 ) ) ;
#146 = DIRECTION ( 'NONE',  ( 1.000000000000000000, 0.000000000000000000, -0.000000000000000000 ) ) ;
#147 = DIRECTION ( 'NONE',  ( -0.000000000000000000, -0.000000000000000000, -1.000000000000000000 ) ) ;
#148 = AXIS2_PLACEMENT_3D ( 'NONE', #286, #122, #25 ) ;
#149 = VERTEX_POINT ( 'NONE', #142 ) ;
#150 = APPROVAL_DATE_TIME ( #276, #248 ) ;
#151 = EDGE_LOOP ( 'NONE', ( #290, #57, #270, #7 ) ) ;
#152 = ADVANCED_FACE ( 'NONE', ( #18 ), #115, .T. ) ;
#153 =( NAMED_UNIT ( * ) SI_UNIT ( $, .STERADIAN. ) SOLID_ANGLE_UNIT ( ) );
#154 = VERTEX_POINT ( 'NONE', #216 ) ;
#155 = MANIFOLD_SOLID_BREP ( 'Zaoblit1', #116 ) ;
#156 = SECURITY_CLASSIFICATION_LEVEL ( 'unclassified' ) ;
#157 = CC_DESIGN_SECURITY_CLASSIFICATION ( #73, ( #264 ) ) ;
#158 = PERSON_AND_ORGANIZATION_ROLE ( 'design_supplier' ) ;
#159 = ADVANCED_FACE ( 'NONE', ( #117 ), #253, .F. ) ;
#160 = COORDINATED_UNIVERSAL_TIME_OFFSET ( 1, 0, .AHEAD. ) ;
#161 = CARTESIAN_POINT ( 'NONE',  ( 0.000000000000000000, 0.000000000000000000, 260.0000000000000000 ) ) ;
#162 = ORIENTED_EDGE ( 'NONE', *, *, #275, .F. ) ;
#163 = AXIS2_PLACEMENT_3D ( 'NONE', #161, #169, #258 ) ;
#164 = DIRECTION ( 'NONE',  ( 1.000000000000000000, 0.000000000000000000, 0.000000000000000000 ) ) ;
#165 = APPLICATION_CONTEXT ( 'configuration controlled 3d designs of mechanical parts and assemblies' ) ;
#166 = EDGE_CURVE ( 'NONE', #190, #299, #284, .T. ) ;
#167 = CARTESIAN_POINT ( 'NONE',  ( 0.000000000000000000, 0.000000000000000000, 260.0000000000000000 ) ) ;
#168 = CARTESIAN_POINT ( 'NONE',  ( 6.950000000000001066, 8.511295254074106405E-16, 260.0000000000000000 ) ) ;
#169 = DIRECTION ( 'NONE',  ( -0.000000000000000000, -0.000000000000000000, -1.000000000000000000 ) ) ;
#170 = DIRECTION ( 'NONE',  ( -0.000000000000000000, -0.000000000000000000, -1.000000000000000000 ) ) ;
#171 = FACE_OUTER_BOUND ( 'NONE', #101, .T. ) ;
#172 = CIRCLE ( 'NONE', #218, 6.950000000000001066 ) ;
#173 = CARTESIAN_POINT ( 'NONE',  ( 7.150000000000001243, 0.000000000000000000, 10.19999999999998685 ) ) ;
#174 = FACE_OUTER_BOUND ( 'NONE', #179, .T. ) ;
#175 = ORIENTED_EDGE ( 'NONE', *, *, #239, .T. ) ;
#176 = AXIS2_PLACEMENT_3D ( 'NONE', #288, #269, #287 ) ;
#177 = EDGE_CURVE ( 'NONE', #90, #154, #282, .T. ) ;
#178 = ORIENTED_EDGE ( 'NONE', *, *, #141, .T. ) ;
#179 = EDGE_LOOP ( 'NONE', ( #162, #114, #260, #203 ) ) ;
#180 = VECTOR ( 'NONE', #69, 1000.000000000000000 ) ;
#181 = LOCAL_TIME ( 11, 12, 16.00000000000000000, #160 ) ;
#182 = APPROVAL_ROLE ( '' ) ;
#183 = DIRECTION ( 'NONE',  ( 1.000000000000000000, 0.000000000000000000, -0.000000000000000000 ) ) ;
#184 = CARTESIAN_POINT ( 'NONE',  ( 0.000000000000000000, 0.000000000000000000, 10.00000000000000000 ) ) ;
#185 = ADVANCED_FACE ( 'NONE', ( #20 ), #305, .F. ) ;
#186 = CIRCLE ( 'NONE', #215, 11.00000000000000000 ) ;
#187 = DIRECTION ( 'NONE',  ( -0.000000000000000000, -0.000000000000000000, -1.000000000000000000 ) ) ;
#188 = CARTESIAN_POINT ( 'NONE',  ( 7.150000000000001243, 0.000000000000000000, 9.999999999999992895 ) ) ;
#189 = FACE_OUTER_BOUND ( 'NONE', #272, .T. ) ;
#190 = VERTEX_POINT ( 'NONE', #196 ) ;
#191 = APPROVAL_PERSON_ORGANIZATION ( #204, #98, #12 ) ;
#192 = DIRECTION ( 'NONE',  ( 1.000000000000000000, 0.000000000000000000, 0.000000000000000000 ) ) ;
#193 = LOCAL_TIME ( 11, 12, 16.00000000000000000, #86 ) ;
#194 = CARTESIAN_POINT ( 'NONE',  ( 6.950000000000001066, 8.511295254074106405E-16, 10.19999999999998685 ) ) ;
#195 = DIRECTION ( 'NONE',  ( 0.000000000000000000, 0.000000000000000000, 1.000000000000000000 ) ) ;
#196 = CARTESIAN_POINT ( 'NONE',  ( 11.00000000000000000, 1.347111479062088405E-15, 0.000000000000000000 ) ) ;
#197 = AXIS2_PLACEMENT_3D ( 'NONE', #307, #147, #238 ) ;
#198 = ORIENTED_EDGE ( 'NONE', *, *, #107, .T. ) ;
#199 = EDGE_CURVE ( 'NONE', #274, #102, #72, .T. ) ;
#200 = EDGE_LOOP ( 'NONE', ( #128, #229 ) ) ;
#201 = DATE_AND_TIME ( #249, #193 ) ;
#202 = LOCAL_TIME ( 11, 12, 16.00000000000000000, #243 ) ;
#203 = ORIENTED_EDGE ( 'NONE', *, *, #107, .F. ) ;
#204 = PERSON_AND_ORGANIZATION ( #235, #14 ) ;
#205 = APPROVAL_DATE_TIME ( #108, #75 ) ;
#206 = CIRCLE ( 'NONE', #230, 6.950000000000001066 ) ;
#207 = ADVANCED_FACE ( 'NONE', ( #31 ), #110, .T. ) ;
#208 = FACE_OUTER_BOUND ( 'NONE', #200, .T. ) ;
#209 = CC_DESIGN_DATE_AND_TIME_ASSIGNMENT ( #201, #227, ( #73 ) ) ;
#210 = DIRECTION ( 'NONE',  ( 0.000000000000000000, 0.000000000000000000, 1.000000000000000000 ) ) ;
#211 = VECTOR ( 'NONE', #42, 1000.000000000000000 ) ;
#212 = EDGE_CURVE ( 'NONE', #149, #299, #78, .T. ) ;
#213 = ORIENTED_EDGE ( 'NONE', *, *, #199, .F. ) ;
#214 = ORIENTED_EDGE ( 'NONE', *, *, #6, .F. ) ;
#215 = AXIS2_PLACEMENT_3D ( 'NONE', #77, #24, #99 ) ;
#216 = CARTESIAN_POINT ( 'NONE',  ( -6.950000000000001066, 0.000000000000000000, 10.19999999999998685 ) ) ;
#217 = DIRECTION ( 'NONE',  ( 0.000000000000000000, 0.000000000000000000, 1.000000000000000000 ) ) ;
#218 = AXIS2_PLACEMENT_3D ( 'NONE', #167, #93, #232 ) ;
#219 = PRODUCT ( '115c', '115c', '', ( #62 ) ) ;
#220 = DIRECTION ( 'NONE',  ( 1.000000000000000000, 0.000000000000000000, 0.000000000000000000 ) ) ;
#221 = CC_DESIGN_PERSON_AND_ORGANIZATION_ASSIGNMENT ( #132, #103, ( #73 ) ) ;
#222 = EDGE_LOOP ( 'NONE', ( #178, #198 ) ) ;
#223 = APPROVAL_ROLE ( '' ) ;
#224 = ORIENTED_EDGE ( 'NONE', *, *, #79, .T. ) ;
#225 = DATE_AND_TIME ( #87, #202 ) ;
#226 = PERSON_AND_ORGANIZATION_ROLE ( 'creator' ) ;
#227 = DATE_TIME_ROLE ( 'classification_date' ) ;
#228 = PERSON_AND_ORGANIZATION ( #235, #14 ) ;
#229 = ORIENTED_EDGE ( 'NONE', *, *, #64, .T. ) ;
#230 = AXIS2_PLACEMENT_3D ( 'NONE', #240, #125, #220 ) ;
#231 = CARTESIAN_POINT ( 'NONE',  ( 0.000000000000000000, 0.000000000000000000, 10.00000000000000000 ) ) ;
#232 = DIRECTION ( 'NONE',  ( 1.000000000000000000, 0.000000000000000000, 0.000000000000000000 ) ) ;
#233 = CC_DESIGN_APPROVAL ( #75, ( #73 ) ) ;
#234 = DIRECTION ( 'NONE',  ( -0.000000000000000000, -0.000000000000000000, -1.000000000000000000 ) ) ;
#235 = PERSON ( 'NEURÈENÝ', 'NEURÈENÝ', 'NEURÈENÝ', ('NEURÈENÝ'), ('NEURÈENÝ'), ('NEURÈENÝ') ) ;
#236 = DIRECTION ( 'NONE',  ( -1.000000000000000000, 0.000000000000000000, 0.000000000000000000 ) ) ;
#237 = AXIS2_PLACEMENT_3D ( 'NONE', #184, #285, #120 ) ;
#238 = DIRECTION ( 'NONE',  ( -1.000000000000000000, 0.000000000000000000, 0.000000000000000000 ) ) ;
#239 = EDGE_CURVE ( 'NONE', #299, #190, #186, .T. ) ;
#240 = CARTESIAN_POINT ( 'NONE',  ( 0.000000000000000000, 0.000000000000000000, 260.0000000000000000 ) ) ;
#241 = CIRCLE ( 'NONE', #48, 6.950000000000001066 ) ;
#242 = ORIENTED_EDGE ( 'NONE', *, *, #166, .F. ) ;
#243 = COORDINATED_UNIVERSAL_TIME_OFFSET ( 1, 0, .AHEAD. ) ;
#244 = ORIENTED_EDGE ( 'NONE', *, *, #6, .T. ) ;
#245 = PERSON_AND_ORGANIZATION_ROLE ( 'design_owner' ) ;
#246 = PLANE ( 'NONE',  #55 ) ;
#247 = PERSON_AND_ORGANIZATION ( #235, #14 ) ;
#248 = APPROVAL ( #59, 'NEURÈENÝ' ) ;
#249 = CALENDAR_DATE ( 2022, 3, 10 ) ;
#250 = SHAPE_DEFINITION_REPRESENTATION ( #295, #23 ) ;
#251 = FACE_BOUND ( 'NONE', #222, .T. ) ;
#252 = AXIS2_PLACEMENT_3D ( 'NONE', #97, #195, #145 ) ;
#253 = PLANE ( 'NONE',  #139 ) ;
#254 = DIRECTION ( 'NONE',  ( 0.000000000000000000, 0.000000000000000000, 1.000000000000000000 ) ) ;
#255 = CARTESIAN_POINT ( 'NONE',  ( 0.000000000000000000, 0.000000000000000000, 0.000000000000000000 ) ) ;
#256 =( GEOMETRIC_REPRESENTATION_CONTEXT ( 3 ) GLOBAL_UNCERTAINTY_ASSIGNED_CONTEXT ( ( #71 ) ) GLOBAL_UNIT_ASSIGNED_CONTEXT ( ( #265, #129, #153 ) ) REPRESENTATION_CONTEXT ( 'NONE', 'WORKASPACE' ) );
#257 = APPROVAL_PERSON_ORGANIZATION ( #8, #75, #182 ) ;
#258 = DIRECTION ( 'NONE',  ( -1.000000000000000000, 0.000000000000000000, 0.000000000000000000 ) ) ;
#259 = CARTESIAN_POINT ( 'NONE',  ( 6.950000000000001066, 8.511295254074106405E-16, 260.0000000000000000 ) ) ;
#260 = ORIENTED_EDGE ( 'NONE', *, *, #199, .T. ) ;
#261 = CARTESIAN_POINT ( 'NONE',  ( -6.950000000000001066, 0.000000000000000000, 260.0000000000000000 ) ) ;
#262 = EDGE_CURVE ( 'NONE', #80, #190, #27, .T. ) ;
#263 = ADVANCED_FACE ( 'NONE', ( #174 ), #82, .F. ) ;
#264 = PRODUCT_DEFINITION_FORMATION_WITH_SPECIFIED_SOURCE ( 'LIBOVOLNÝ', '', #219, .NOT_KNOWN. ) ;
#265 =( LENGTH_UNIT ( ) NAMED_UNIT ( * ) SI_UNIT ( .MILLI., .METRE. ) );
#266 = PRODUCT_DEFINITION ( 'NEZNÁMÝ', '', #264, #304 ) ;
#267 = CARTESIAN_POINT ( 'NONE',  ( 0.000000000000000000, 0.000000000000000000, 10.19999999999998685 ) ) ;
#268 = CARTESIAN_POINT ( 'NONE',  ( 0.000000000000000000, 0.000000000000000000, 10.19999999999998685 ) ) ;
#269 = DIRECTION ( 'NONE',  ( 0.000000000000000000, 0.000000000000000000, 1.000000000000000000 ) ) ;
#270 = ORIENTED_EDGE ( 'NONE', *, *, #278, .T. ) ;
#271 = CARTESIAN_POINT ( 'NONE',  ( -11.00000000000000000, 0.000000000000000000, 10.00000000000000000 ) ) ;
#272 = EDGE_LOOP ( 'NONE', ( #38, #126, #58, #292 ) ) ;
#273 = PERSON_AND_ORGANIZATION ( #235, #14 ) ;
#274 = VERTEX_POINT ( 'NONE', #194 ) ;
#275 = EDGE_CURVE ( 'NONE', #154, #15, #9, .T. ) ;
#276 = DATE_AND_TIME ( #4, #131 ) ;
#277 = CIRCLE ( 'NONE', #19, 11.00000000000000000 ) ;
#278 = EDGE_CURVE ( 'NONE', #274, #154, #121, .T. ) ;
#279 = DIRECTION ( 'NONE',  ( 0.000000000000000000, 0.000000000000000000, 1.000000000000000000 ) ) ;
#280 = DIRECTION ( 'NONE',  ( 1.000000000000000000, 0.000000000000000000, -0.000000000000000000 ) ) ;
#281 = LOCAL_TIME ( 11, 12, 16.00000000000000000, #83 ) ;
#282 = LINE ( 'NONE', #68, #211 ) ;
#283 = CARTESIAN_POINT ( 'NONE',  ( 11.00000000000000000, 1.347111479062088405E-15, 10.00000000000000000 ) ) ;
#284 = CIRCLE ( 'NONE', #96, 11.00000000000000000 ) ;
#285 = DIRECTION ( 'NONE',  ( -0.000000000000000000, -0.000000000000000000, -1.000000000000000000 ) ) ;
#286 = CARTESIAN_POINT ( 'NONE',  ( -7.150000000000001243, 8.756224613903575518E-16, 10.19999999999998685 ) ) ;
#287 = DIRECTION ( 'NONE',  ( 1.000000000000000000, 0.000000000000000000, 0.000000000000000000 ) ) ;
#288 = CARTESIAN_POINT ( 'NONE',  ( 0.000000000000000000, 0.000000000000000000, 10.19999999999998685 ) ) ;
#289 = CARTESIAN_POINT ( 'NONE',  ( -11.00000000000000000, 0.000000000000000000, 0.000000000000000000 ) ) ;
#290 = ORIENTED_EDGE ( 'NONE', *, *, #64, .F. ) ;
#291 = DIRECTION ( 'NONE',  ( 0.000000000000000000, 0.000000000000000000, -1.000000000000000000 ) ) ;
#292 = ORIENTED_EDGE ( 'NONE', *, *, #212, .F. ) ;
#293 = PRODUCT_RELATED_PRODUCT_CATEGORY ( 'detail', '', ( #219 ) ) ;
#294 = ORIENTED_EDGE ( 'NONE', *, *, #262, .F. ) ;
#295 = PRODUCT_DEFINITION_SHAPE ( 'NONE', 'NONE',  #266 ) ;
#296 = ADVANCED_FACE ( 'NONE', ( #171 ), #52, .T. ) ;
#297 = AXIS2_PLACEMENT_3D ( 'NONE', #173, #53, #291 ) ;
#298 = APPLICATION_PROTOCOL_DEFINITION ( 'international standard', 'config_control_design', 1994, #123 ) ;
#299 = VERTEX_POINT ( 'NONE', #289 ) ;
#300 = DIRECTION ( 'NONE',  ( 0.000000000000000000, 0.000000000000000000, 1.000000000000000000 ) ) ;
#301 = CC_DESIGN_APPROVAL ( #248, ( #264 ) ) ;
#302 = VECTOR ( 'NONE', #76, 1000.000000000000000 ) ;
#303 = EDGE_LOOP ( 'NONE', ( #224, #46 ) ) ;
#304 = DESIGN_CONTEXT ( 'detailed design', #123, 'design' ) ;
#305 = TOROIDAL_SURFACE ( 'NONE', #176, 7.150000000000001243, 0.2000000000000000111 ) ;
#306 = DIRECTION ( 'NONE',  ( 0.000000000000000000, 0.000000000000000000, 1.000000000000000000 ) ) ;
#307 = CARTESIAN_POINT ( 'NONE',  ( 0.000000000000000000, 0.000000000000000000, 260.0000000000000000 ) ) ;
ENDSEC;
END-ISO-10303-21;
