ISO-10303-21;
HEADER;
FILE_DESCRIPTION (( 'STEP AP203' ),
    '1' );
FILE_NAME ('d84e.STEP',
    '2022-07-07T10:41:48',
    ( '' ),
    ( '' ),
    'SwSTEP 2.0',
    'SolidWorks 2019',
    '' );
FILE_SCHEMA (( 'CONFIG_CONTROL_DESIGN' ));
ENDSEC;

DATA;
#1 = EDGE_CURVE ( 'NONE', #265, #258, #277, .T. ) ;
#2 = CLOSED_SHELL ( 'NONE', ( #60, #28, #297, #243, #203, #151, #93, #94, #156 ) ) ;
#3 = EDGE_CURVE ( 'NONE', #74, #305, #129, .T. ) ;
#4 = DIRECTION ( 'NONE',  ( 0.000000000000000000, 0.000000000000000000, 1.000000000000000000 ) ) ;
#5 = ORIENTED_EDGE ( 'NONE', *, *, #71, .T. ) ;
#6 = EDGE_CURVE ( 'NONE', #258, #305, #56, .T. ) ;
#7 = DIRECTION ( 'NONE',  ( 1.000000000000000000, 0.000000000000000000, 0.000000000000000000 ) ) ;
#8 = ORIENTED_EDGE ( 'NONE', *, *, #235, .T. ) ;
#9 = CARTESIAN_POINT ( 'NONE',  ( 1.250000000000000000, 1.530808498934191571E-16, 1.199999999999999956 ) ) ;
#10 = CIRCLE ( 'NONE', #49, 0.1999999999999999833 ) ;
#11 = ORIENTED_EDGE ( 'NONE', *, *, #201, .T. ) ;
#12 = PLANE ( 'NONE',  #43 ) ;
#13 = ORIENTED_EDGE ( 'NONE', *, *, #6, .F. ) ;
#14 =( NAMED_UNIT ( * ) PLANE_ANGLE_UNIT ( ) SI_UNIT ( $, .RADIAN. ) );
#15 = CARTESIAN_POINT ( 'NONE',  ( 0.000000000000000000, 0.000000000000000000, 1.399999999999998579 ) ) ;
#16 = DIRECTION ( 'NONE',  ( -0.000000000000000000, -0.000000000000000000, -1.000000000000000000 ) ) ;
#17 = SECURITY_CLASSIFICATION ( '', '', #205 ) ;
#18 = EDGE_CURVE ( 'NONE', #167, #186, #294, .T. ) ;
#19 = CARTESIAN_POINT ( 'NONE',  ( 0.5000000000000000000, 6.123233995736766036E-17, 101.2000000000000171 ) ) ;
#20 = DIRECTION ( 'NONE',  ( 0.000000000000000000, 0.000000000000000000, 1.000000000000000000 ) ) ;
#21 = PERSON_AND_ORGANIZATION ( #293, #158 ) ;
#22 = CALENDAR_DATE ( 2022, 7, 7 ) ;
#23 = PERSON_AND_ORGANIZATION ( #293, #158 ) ;
#24 = PERSON_AND_ORGANIZATION ( #293, #158 ) ;
#25 = AXIS2_PLACEMENT_3D ( 'NONE', #95, #97, #115 ) ;
#26 = EDGE_CURVE ( 'NONE', #41, #34, #195, .T. ) ;
#27 = VERTEX_POINT ( 'NONE', #70 ) ;
#28 = ADVANCED_FACE ( 'NONE', ( #120 ), #35, .T. ) ;
#29 = CC_DESIGN_PERSON_AND_ORGANIZATION_ASSIGNMENT ( #24, #127, ( #100 ) ) ;
#30 = DIRECTION ( 'NONE',  ( 1.000000000000000000, 0.000000000000000000, 0.000000000000000000 ) ) ;
#31 = CYLINDRICAL_SURFACE ( 'NONE', #134, 0.5000000000000000000 ) ;
#32 = ORIENTED_EDGE ( 'NONE', *, *, #3, .T. ) ;
#33 = DIRECTION ( 'NONE',  ( -1.000000000000000000, 1.224646799147352714E-16, 0.000000000000000000 ) ) ;
#34 = VERTEX_POINT ( 'NONE', #291 ) ;
#35 = CYLINDRICAL_SURFACE ( 'NONE', #214, 0.5000000000000000000 ) ;
#36 = CC_DESIGN_PERSON_AND_ORGANIZATION_ASSIGNMENT ( #304, #157, ( #256 ) ) ;
#37 = CIRCLE ( 'NONE', #207, 0.5000000000000000000 ) ;
#38 = CARTESIAN_POINT ( 'NONE',  ( 0.5000000000000000000, 6.123233995736766036E-17, 101.2000000000000171 ) ) ;
#39 = CARTESIAN_POINT ( 'NONE',  ( 0.000000000000000000, 0.000000000000000000, 0.000000000000000000 ) ) ;
#40 = PLANE ( 'NONE',  #247 ) ;
#41 = VERTEX_POINT ( 'NONE', #116 ) ;
#42 = CARTESIAN_POINT ( 'NONE',  ( -0.5000000000000000000, 0.000000000000000000, 101.2000000000000171 ) ) ;
#43 = AXIS2_PLACEMENT_3D ( 'NONE', #39, #4, #96 ) ;
#44 = DIRECTION ( 'NONE',  ( 0.000000000000000000, 0.000000000000000000, 1.000000000000000000 ) ) ;
#45 = COORDINATED_UNIVERSAL_TIME_OFFSET ( 1, 0, .AHEAD. ) ;
#46 = CARTESIAN_POINT ( 'NONE',  ( 0.5000000000000000000, 6.123233995736766036E-17, 1.399999999999998579 ) ) ;
#47 = PERSON_AND_ORGANIZATION_ROLE ( 'classification_officer' ) ;
#48 = LOCAL_TIME ( 12, 41, 48.00000000000000000, #300 ) ;
#49 = AXIS2_PLACEMENT_3D ( 'NONE', #141, #244, #33 ) ;
#50 = EDGE_CURVE ( 'NONE', #27, #53, #281, .T. ) ;
#51 = VECTOR ( 'NONE', #144, 1000.000000000000000 ) ;
#52 = DIRECTION ( 'NONE',  ( -0.000000000000000000, -0.000000000000000000, -1.000000000000000000 ) ) ;
#53 = VERTEX_POINT ( 'NONE', #65 ) ;
#54 = CARTESIAN_POINT ( 'NONE',  ( 0.6999999999999999556, 0.000000000000000000, 1.399999999999998579 ) ) ;
#55 = ORIENTED_EDGE ( 'NONE', *, *, #159, .T. ) ;
#56 = LINE ( 'NONE', #38, #266 ) ;
#57 = DIRECTION ( 'NONE',  ( 1.000000000000000000, 0.000000000000000000, 0.000000000000000000 ) ) ;
#58 = ORIENTED_EDGE ( 'NONE', *, *, #26, .T. ) ;
#59 = DIRECTION ( 'NONE',  ( -0.000000000000000000, -0.000000000000000000, -1.000000000000000000 ) ) ;
#60 = ADVANCED_FACE ( 'NONE', ( #289 ), #152, .F. ) ;
#61 = APPROVAL_STATUS ( 'not_yet_approved' ) ;
#62 = CC_DESIGN_DATE_AND_TIME_ASSIGNMENT ( #79, #227, ( #17 ) ) ;
#63 = ORIENTED_EDGE ( 'NONE', *, *, #234, .T. ) ;
#64 = COORDINATED_UNIVERSAL_TIME_OFFSET ( 1, 0, .AHEAD. ) ;
#65 = CARTESIAN_POINT ( 'NONE',  ( 0.6999999999999999556, 0.000000000000000000, 1.199999999999999289 ) ) ;
#66 = CARTESIAN_POINT ( 'NONE',  ( -1.250000000000000000, 0.000000000000000000, 1.199999999999999956 ) ) ;
#67 = CIRCLE ( 'NONE', #252, 1.250000000000000000 ) ;
#68 = CARTESIAN_POINT ( 'NONE',  ( 0.000000000000000000, 0.000000000000000000, 0.000000000000000000 ) ) ;
#69 = ORIENTED_EDGE ( 'NONE', *, *, #165, .F. ) ;
#70 = CARTESIAN_POINT ( 'NONE',  ( -0.6999999999999999556, 8.572527594031473190E-17, 1.199999999999999289 ) ) ;
#71 = EDGE_CURVE ( 'NONE', #305, #74, #166, .T. ) ;
#72 = ORIENTED_EDGE ( 'NONE', *, *, #89, .F. ) ;
#73 = FACE_OUTER_BOUND ( 'NONE', #268, .T. ) ;
#74 = VERTEX_POINT ( 'NONE', #259 ) ;
#75 = CIRCLE ( 'NONE', #82, 0.6999999999999999556 ) ;
#76 = FACE_BOUND ( 'NONE', #223, .T. ) ;
#77 = CARTESIAN_POINT ( 'NONE',  ( 0.000000000000000000, 0.000000000000000000, 1.199999999999999956 ) ) ;
#78 = FACE_OUTER_BOUND ( 'NONE', #284, .T. ) ;
#79 = DATE_AND_TIME ( #211, #147 ) ;
#80 = APPROVAL_DATE_TIME ( #276, #111 ) ;
#81 = COORDINATED_UNIVERSAL_TIME_OFFSET ( 1, 0, .AHEAD. ) ;
#82 = AXIS2_PLACEMENT_3D ( 'NONE', #264, #196, #285 ) ;
#83 = AXIS2_PLACEMENT_3D ( 'NONE', #98, #179, #226 ) ;
#84 = COORDINATED_UNIVERSAL_TIME_OFFSET ( 1, 0, .AHEAD. ) ;
#85 = CC_DESIGN_SECURITY_CLASSIFICATION ( #17, ( #100 ) ) ;
#86 = CARTESIAN_POINT ( 'NONE',  ( 0.000000000000000000, 0.000000000000000000, 1.399999999999998579 ) ) ;
#87 = ORIENTED_EDGE ( 'NONE', *, *, #201, .F. ) ;
#88 = CARTESIAN_POINT ( 'NONE',  ( 0.000000000000000000, 0.000000000000000000, 101.2000000000000171 ) ) ;
#89 = EDGE_CURVE ( 'NONE', #53, #27, #75, .T. ) ;
#90 = ORIENTED_EDGE ( 'NONE', *, *, #26, .F. ) ;
#91 = AXIS2_PLACEMENT_3D ( 'NONE', #171, #249, #57 ) ;
#92 = CARTESIAN_POINT ( 'NONE',  ( 0.000000000000000000, 0.000000000000000000, 1.199999999999999956 ) ) ;
#93 = ADVANCED_FACE ( 'NONE', ( #73 ), #31, .T. ) ;
#94 = ADVANCED_FACE ( 'NONE', ( #241 ), #164, .T. ) ;
#95 = CARTESIAN_POINT ( 'NONE',  ( 0.000000000000000000, 0.000000000000000000, 101.2000000000000171 ) ) ;
#96 = DIRECTION ( 'NONE',  ( 1.000000000000000000, 0.000000000000000000, -0.000000000000000000 ) ) ;
#97 = DIRECTION ( 'NONE',  ( 0.000000000000000000, 0.000000000000000000, 1.000000000000000000 ) ) ;
#98 = CARTESIAN_POINT ( 'NONE',  ( 0.000000000000000000, 0.000000000000000000, 1.199999999999999956 ) ) ;
#99 = DIRECTION ( 'NONE',  ( 0.000000000000000000, 0.000000000000000000, 1.000000000000000000 ) ) ;
#100 = PRODUCT_DEFINITION_FORMATION_WITH_SPECIFIED_SOURCE ( 'LIBOVOLNÝ', '', #256, .NOT_KNOWN. ) ;
#101 = DIRECTION ( 'NONE',  ( 1.000000000000000000, 0.000000000000000000, 0.000000000000000000 ) ) ;
#102 = CYLINDRICAL_SURFACE ( 'NONE', #239, 1.250000000000000000 ) ;
#103 = DIRECTION ( 'NONE',  ( 1.000000000000000000, 0.000000000000000000, 0.000000000000000000 ) ) ;
#104 = PERSON_AND_ORGANIZATION_ROLE ( 'creator' ) ;
#105 = APPROVAL_DATE_TIME ( #280, #272 ) ;
#106 = DATE_AND_TIME ( #22, #48 ) ;
#107 = APPROVAL_ROLE ( '' ) ;
#108 = ORIENTED_EDGE ( 'NONE', *, *, #271, .T. ) ;
#109 = PERSON_AND_ORGANIZATION_ROLE ( 'design_supplier' ) ;
#110 = AXIS2_PLACEMENT_3D ( 'NONE', #148, #168, #30 ) ;
#111 = APPROVAL ( #61, 'NEURÈENÝ' ) ;
#112 = AXIS2_PLACEMENT_3D ( 'NONE', #86, #189, #7 ) ;
#113 = CARTESIAN_POINT ( 'NONE',  ( 0.000000000000000000, 0.000000000000000000, 1.199999999999999956 ) ) ;
#114 = DIRECTION ( 'NONE',  ( 0.000000000000000000, -1.000000000000000000, 0.000000000000000000 ) ) ;
#115 = DIRECTION ( 'NONE',  ( 1.000000000000000000, 0.000000000000000000, 0.000000000000000000 ) ) ;
#116 = CARTESIAN_POINT ( 'NONE',  ( -1.250000000000000000, 0.000000000000000000, 1.199999999999999956 ) ) ;
#117 = EDGE_LOOP ( 'NONE', ( #212, #197 ) ) ;
#118 = CARTESIAN_POINT ( 'NONE',  ( 0.000000000000000000, 0.000000000000000000, 101.2000000000000171 ) ) ;
#119 = ORIENTED_EDGE ( 'NONE', *, *, #89, .T. ) ;
#120 = FACE_OUTER_BOUND ( 'NONE', #146, .T. ) ;
#121 = LINE ( 'NONE', #42, #200 ) ;
#122 = EDGE_LOOP ( 'NONE', ( #250, #174, #72, #279 ) ) ;
#123 = CARTESIAN_POINT ( 'NONE',  ( 0.000000000000000000, 0.000000000000000000, 1.199999999999999956 ) ) ;
#124 = MANIFOLD_SOLID_BREP ( 'Zaoblit1', #2 ) ;
#125 =( NAMED_UNIT ( * ) SI_UNIT ( $, .STERADIAN. ) SOLID_ANGLE_UNIT ( ) );
#126 = DIRECTION ( 'NONE',  ( 1.000000000000000000, 0.000000000000000000, 0.000000000000000000 ) ) ;
#127 = PERSON_AND_ORGANIZATION_ROLE ( 'creator' ) ;
#128 = CARTESIAN_POINT ( 'NONE',  ( -0.5000000000000000000, 0.000000000000000000, 101.2000000000000171 ) ) ;
#129 = CIRCLE ( 'NONE', #175, 0.5000000000000000000 ) ;
#130 = CC_DESIGN_APPROVAL ( #240, ( #17 ) ) ;
#131 = PRODUCT_DEFINITION ( 'NEZNÁMÝ', '', #100, #275 ) ;
#132 = DATE_TIME_ROLE ( 'creation_date' ) ;
#133 = ORIENTED_EDGE ( 'NONE', *, *, #50, .F. ) ;
#134 = AXIS2_PLACEMENT_3D ( 'NONE', #246, #52, #191 ) ;
#135 = CC_DESIGN_APPROVAL ( #272, ( #131 ) ) ;
#136 = CC_DESIGN_PERSON_AND_ORGANIZATION_ASSIGNMENT ( #232, #104, ( #131 ) ) ;
#137 = DIRECTION ( 'NONE',  ( -0.000000000000000000, -0.000000000000000000, -1.000000000000000000 ) ) ;
#138 = APPROVAL_PERSON_ORGANIZATION ( #209, #111, #107 ) ;
#139 = DIRECTION ( 'NONE',  ( 0.000000000000000000, 0.000000000000000000, 1.000000000000000000 ) ) ;
#140 = EDGE_LOOP ( 'NONE', ( #69, #248, #199, #133 ) ) ;
#141 = CARTESIAN_POINT ( 'NONE',  ( -0.6999999999999999556, 8.572527594031471957E-17, 1.399999999999998579 ) ) ;
#142 = DIRECTION ( 'NONE',  ( -0.000000000000000000, -0.000000000000000000, -1.000000000000000000 ) ) ;
#143 = DIRECTION ( 'NONE',  ( -0.000000000000000000, -0.000000000000000000, -1.000000000000000000 ) ) ;
#144 = DIRECTION ( 'NONE',  ( -0.000000000000000000, -0.000000000000000000, -1.000000000000000000 ) ) ;
#145 = AXIS2_PLACEMENT_3D ( 'NONE', #113, #143, #238 ) ;
#146 = EDGE_LOOP ( 'NONE', ( #87, #217, #5, #172 ) ) ;
#147 = LOCAL_TIME ( 12, 41, 48.00000000000000000, #81 ) ;
#148 = CARTESIAN_POINT ( 'NONE',  ( 0.000000000000000000, 0.000000000000000000, 1.399999999999998579 ) ) ;
#149 = DIRECTION ( 'NONE',  ( -0.000000000000000000, -0.000000000000000000, -1.000000000000000000 ) ) ;
#150 = DIRECTION ( 'NONE',  ( -1.000000000000000000, 0.000000000000000000, 0.000000000000000000 ) ) ;
#151 = ADVANCED_FACE ( 'NONE', ( #215 ), #12, .F. ) ;
#152 = TOROIDAL_SURFACE ( 'NONE', #91, 0.6999999999999999556, 0.2000000000000000111 ) ;
#153 = APPROVAL_STATUS ( 'not_yet_approved' ) ;
#154 = DIRECTION ( 'NONE',  ( 1.000000000000000000, 0.000000000000000000, 0.000000000000000000 ) ) ;
#155 = DATE_AND_TIME ( #181, #180 ) ;
#156 = ADVANCED_FACE ( 'NONE', ( #173 ), #301, .F. ) ;
#157 = PERSON_AND_ORGANIZATION_ROLE ( 'design_owner' ) ;
#158 = ORGANIZATION ( 'NEURÈENÝ', 'NEURÈENÝ', '' ) ;
#159 = EDGE_CURVE ( 'NONE', #186, #34, #67, .T. ) ;
#160 = PRODUCT_DEFINITION_SHAPE ( 'NONE', 'NONE',  #131 ) ;
#161 = SHAPE_DEFINITION_REPRESENTATION ( #160, #237 ) ;
#162 = CIRCLE ( 'NONE', #286, 0.2000000000000000944 ) ;
#163 = EDGE_CURVE ( 'NONE', #305, #53, #162, .T. ) ;
#164 = PLANE ( 'NONE',  #187 ) ;
#165 = EDGE_CURVE ( 'NONE', #74, #27, #10, .T. ) ;
#166 = CIRCLE ( 'NONE', #110, 0.5000000000000000000 ) ;
#167 = VERTEX_POINT ( 'NONE', #9 ) ;
#168 = DIRECTION ( 'NONE',  ( 0.000000000000000000, 0.000000000000000000, 1.000000000000000000 ) ) ;
#169 = ORIENTED_EDGE ( 'NONE', *, *, #50, .T. ) ;
#170 = CC_DESIGN_DATE_AND_TIME_ASSIGNMENT ( #106, #132, ( #131 ) ) ;
#171 = CARTESIAN_POINT ( 'NONE',  ( 0.000000000000000000, 0.000000000000000000, 1.399999999999998579 ) ) ;
#172 = ORIENTED_EDGE ( 'NONE', *, *, #271, .F. ) ;
#173 = FACE_OUTER_BOUND ( 'NONE', #140, .T. ) ;
#174 = ORIENTED_EDGE ( 'NONE', *, *, #165, .T. ) ;
#175 = AXIS2_PLACEMENT_3D ( 'NONE', #15, #99, #288 ) ;
#176 =( GEOMETRIC_REPRESENTATION_CONTEXT ( 3 ) GLOBAL_UNCERTAINTY_ASSIGNED_CONTEXT ( ( #206 ) ) GLOBAL_UNIT_ASSIGNED_CONTEXT ( ( #295, #14, #125 ) ) REPRESENTATION_CONTEXT ( 'NONE', 'WORKASPACE' ) );
#177 = DIRECTION ( 'NONE',  ( 0.000000000000000000, 0.000000000000000000, 1.000000000000000000 ) ) ;
#178 = DIRECTION ( 'NONE',  ( 1.000000000000000000, 0.000000000000000000, -0.000000000000000000 ) ) ;
#179 = DIRECTION ( 'NONE',  ( 0.000000000000000000, 0.000000000000000000, 1.000000000000000000 ) ) ;
#180 = LOCAL_TIME ( 12, 41, 48.00000000000000000, #84 ) ;
#181 = CALENDAR_DATE ( 2022, 7, 7 ) ;
#182 = APPROVAL_ROLE ( '' ) ;
#183 = CALENDAR_DATE ( 2022, 7, 7 ) ;
#184 = VECTOR ( 'NONE', #142, 1000.000000000000000 ) ;
#185 = PRODUCT_RELATED_PRODUCT_CATEGORY ( 'detail', '', ( #256 ) ) ;
#186 = VERTEX_POINT ( 'NONE', #218 ) ;
#187 = AXIS2_PLACEMENT_3D ( 'NONE', #118, #139, #221 ) ;
#188 = EDGE_CURVE ( 'NONE', #41, #167, #219, .T. ) ;
#189 = DIRECTION ( 'NONE',  ( 0.000000000000000000, 0.000000000000000000, 1.000000000000000000 ) ) ;
#190 = ORIENTED_EDGE ( 'NONE', *, *, #18, .F. ) ;
#191 = DIRECTION ( 'NONE',  ( -1.000000000000000000, 0.000000000000000000, 0.000000000000000000 ) ) ;
#192 = LOCAL_TIME ( 12, 41, 48.00000000000000000, #64 ) ;
#193 = EDGE_LOOP ( 'NONE', ( #190, #261, #58, #8 ) ) ;
#194 = DIRECTION ( 'NONE',  ( -1.000000000000000000, 0.000000000000000000, 0.000000000000000000 ) ) ;
#195 = LINE ( 'NONE', #66, #51 ) ;
#196 = DIRECTION ( 'NONE',  ( -0.000000000000000000, -0.000000000000000000, -1.000000000000000000 ) ) ;
#197 = ORIENTED_EDGE ( 'NONE', *, *, #159, .F. ) ;
#198 = MECHANICAL_CONTEXT ( 'NONE', #298, 'mechanical' ) ;
#199 = ORIENTED_EDGE ( 'NONE', *, *, #163, .T. ) ;
#200 = VECTOR ( 'NONE', #228, 1000.000000000000000 ) ;
#201 = EDGE_CURVE ( 'NONE', #258, #265, #37, .T. ) ;
#202 = DIRECTION ( 'NONE',  ( 0.000000000000000000, 0.000000000000000000, 1.000000000000000000 ) ) ;
#203 = ADVANCED_FACE ( 'NONE', ( #76, #78 ), #40, .T. ) ;
#204 = CARTESIAN_POINT ( 'NONE',  ( 0.000000000000000000, 0.000000000000000000, 101.2000000000000171 ) ) ;
#205 = SECURITY_CLASSIFICATION_LEVEL ( 'unclassified' ) ;
#206 = UNCERTAINTY_MEASURE_WITH_UNIT (LENGTH_MEASURE( 1.000000000000000082E-05 ), #295, 'distance_accuracy_value', 'NONE');
#207 = AXIS2_PLACEMENT_3D ( 'NONE', #204, #20, #101 ) ;
#208 = CIRCLE ( 'NONE', #282, 1.250000000000000000 ) ;
#209 = PERSON_AND_ORGANIZATION ( #293, #158 ) ;
#210 = CALENDAR_DATE ( 2022, 7, 7 ) ;
#211 = CALENDAR_DATE ( 2022, 7, 7 ) ;
#212 = ORIENTED_EDGE ( 'NONE', *, *, #235, .F. ) ;
#213 = APPLICATION_CONTEXT ( 'configuration controlled 3d designs of mechanical parts and assemblies' ) ;
#214 = AXIS2_PLACEMENT_3D ( 'NONE', #88, #137, #194 ) ;
#215 = FACE_OUTER_BOUND ( 'NONE', #117, .T. ) ;
#216 = DIRECTION ( 'NONE',  ( 0.000000000000000000, 0.000000000000000000, -1.000000000000000000 ) ) ;
#217 = ORIENTED_EDGE ( 'NONE', *, *, #6, .T. ) ;
#218 = CARTESIAN_POINT ( 'NONE',  ( 1.250000000000000000, 1.530808498934191571E-16, 0.000000000000000000 ) ) ;
#219 = CIRCLE ( 'NONE', #257, 1.250000000000000000 ) ;
#220 = EDGE_LOOP ( 'NONE', ( #290, #245, #55, #90 ) ) ;
#221 = DIRECTION ( 'NONE',  ( 1.000000000000000000, 0.000000000000000000, -0.000000000000000000 ) ) ;
#222 = CC_DESIGN_PERSON_AND_ORGANIZATION_ASSIGNMENT ( #233, #109, ( #100 ) ) ;
#223 = EDGE_LOOP ( 'NONE', ( #119, #169 ) ) ;
#224 = DIRECTION ( 'NONE',  ( -1.000000000000000000, 0.000000000000000000, 0.000000000000000000 ) ) ;
#225 = ORIENTED_EDGE ( 'NONE', *, *, #1, .T. ) ;
#226 = DIRECTION ( 'NONE',  ( 1.000000000000000000, 0.000000000000000000, 0.000000000000000000 ) ) ;
#227 = DATE_TIME_ROLE ( 'classification_date' ) ;
#228 = DIRECTION ( 'NONE',  ( -0.000000000000000000, -0.000000000000000000, -1.000000000000000000 ) ) ;
#229 = CC_DESIGN_APPROVAL ( #111, ( #100 ) ) ;
#230 = PERSON_AND_ORGANIZATION ( #293, #158 ) ;
#231 = CC_DESIGN_PERSON_AND_ORGANIZATION_ASSIGNMENT ( #23, #47, ( #17 ) ) ;
#232 = PERSON_AND_ORGANIZATION ( #293, #158 ) ;
#233 = PERSON_AND_ORGANIZATION ( #293, #158 ) ;
#234 = EDGE_CURVE ( 'NONE', #167, #41, #267, .T. ) ;
#235 = EDGE_CURVE ( 'NONE', #34, #186, #208, .T. ) ;
#236 = AXIS2_PLACEMENT_3D ( 'NONE', #270, #59, #150 ) ;
#237 = ADVANCED_BREP_SHAPE_REPRESENTATION ( 'd84e', ( #124, #260 ), #176 ) ;
#238 = DIRECTION ( 'NONE',  ( 1.000000000000000000, 0.000000000000000000, 0.000000000000000000 ) ) ;
#239 = AXIS2_PLACEMENT_3D ( 'NONE', #123, #16, #224 ) ;
#240 = APPROVAL ( #306, 'NEURÈENÝ' ) ;
#241 = FACE_OUTER_BOUND ( 'NONE', #292, .T. ) ;
#242 = ORIENTED_EDGE ( 'NONE', *, *, #188, .T. ) ;
#243 = ADVANCED_FACE ( 'NONE', ( #251 ), #296, .T. ) ;
#244 = DIRECTION ( 'NONE',  ( 1.224646799147353207E-16, 1.000000000000000000, -0.000000000000000000 ) ) ;
#245 = ORIENTED_EDGE ( 'NONE', *, *, #18, .T. ) ;
#246 = CARTESIAN_POINT ( 'NONE',  ( 0.000000000000000000, 0.000000000000000000, 101.2000000000000171 ) ) ;
#247 = AXIS2_PLACEMENT_3D ( 'NONE', #77, #177, #178 ) ;
#248 = ORIENTED_EDGE ( 'NONE', *, *, #71, .F. ) ;
#249 = DIRECTION ( 'NONE',  ( 0.000000000000000000, 0.000000000000000000, 1.000000000000000000 ) ) ;
#250 = ORIENTED_EDGE ( 'NONE', *, *, #3, .F. ) ;
#251 = FACE_OUTER_BOUND ( 'NONE', #193, .T. ) ;
#252 = AXIS2_PLACEMENT_3D ( 'NONE', #68, #262, #283 ) ;
#253 = CARTESIAN_POINT ( 'NONE',  ( 0.000000000000000000, 0.000000000000000000, 0.000000000000000000 ) ) ;
#254 = APPROVAL_ROLE ( '' ) ;
#255 = FACE_OUTER_BOUND ( 'NONE', #220, .T. ) ;
#256 = PRODUCT ( 'd84e', 'd84e', '', ( #198 ) ) ;
#257 = AXIS2_PLACEMENT_3D ( 'NONE', #92, #202, #154 ) ;
#258 = VERTEX_POINT ( 'NONE', #19 ) ;
#259 = CARTESIAN_POINT ( 'NONE',  ( -0.5000000000000000000, 0.000000000000000000, 1.399999999999998579 ) ) ;
#260 = AXIS2_PLACEMENT_3D ( 'NONE', #253, #44, #126 ) ;
#261 = ORIENTED_EDGE ( 'NONE', *, *, #188, .F. ) ;
#262 = DIRECTION ( 'NONE',  ( 0.000000000000000000, 0.000000000000000000, 1.000000000000000000 ) ) ;
#263 = CARTESIAN_POINT ( 'NONE',  ( 1.250000000000000000, 1.530808498934191571E-16, 1.199999999999999956 ) ) ;
#264 = CARTESIAN_POINT ( 'NONE',  ( 0.000000000000000000, 0.000000000000000000, 1.199999999999999956 ) ) ;
#265 = VERTEX_POINT ( 'NONE', #128 ) ;
#266 = VECTOR ( 'NONE', #149, 1000.000000000000000 ) ;
#267 = CIRCLE ( 'NONE', #83, 1.250000000000000000 ) ;
#268 = EDGE_LOOP ( 'NONE', ( #13, #307, #108, #32 ) ) ;
#269 = CARTESIAN_POINT ( 'NONE',  ( 0.000000000000000000, 0.000000000000000000, 0.000000000000000000 ) ) ;
#270 = CARTESIAN_POINT ( 'NONE',  ( 0.000000000000000000, 0.000000000000000000, 1.199999999999999956 ) ) ;
#271 = EDGE_CURVE ( 'NONE', #265, #74, #121, .T. ) ;
#272 = APPROVAL ( #153, 'NEURÈENÝ' ) ;
#273 = APPLICATION_PROTOCOL_DEFINITION ( 'international standard', 'config_control_design', 1994, #298 ) ;
#274 = APPROVAL_DATE_TIME ( #155, #240 ) ;
#275 = DESIGN_CONTEXT ( 'detailed design', #213, 'design' ) ;
#276 = DATE_AND_TIME ( #183, #192 ) ;
#277 = CIRCLE ( 'NONE', #25, 0.5000000000000000000 ) ;
#278 = LOCAL_TIME ( 12, 41, 48.00000000000000000, #45 ) ;
#279 = ORIENTED_EDGE ( 'NONE', *, *, #163, .F. ) ;
#280 = DATE_AND_TIME ( #210, #278 ) ;
#281 = CIRCLE ( 'NONE', #145, 0.6999999999999999556 ) ;
#282 = AXIS2_PLACEMENT_3D ( 'NONE', #269, #299, #103 ) ;
#283 = DIRECTION ( 'NONE',  ( 1.000000000000000000, 0.000000000000000000, 0.000000000000000000 ) ) ;
#284 = EDGE_LOOP ( 'NONE', ( #242, #63 ) ) ;
#285 = DIRECTION ( 'NONE',  ( 1.000000000000000000, 0.000000000000000000, 0.000000000000000000 ) ) ;
#286 = AXIS2_PLACEMENT_3D ( 'NONE', #54, #114, #216 ) ;
#287 = APPROVAL_PERSON_ORGANIZATION ( #230, #272, #254 ) ;
#288 = DIRECTION ( 'NONE',  ( 1.000000000000000000, 0.000000000000000000, 0.000000000000000000 ) ) ;
#289 = FACE_OUTER_BOUND ( 'NONE', #122, .T. ) ;
#290 = ORIENTED_EDGE ( 'NONE', *, *, #234, .F. ) ;
#291 = CARTESIAN_POINT ( 'NONE',  ( -1.250000000000000000, 0.000000000000000000, 0.000000000000000000 ) ) ;
#292 = EDGE_LOOP ( 'NONE', ( #225, #11 ) ) ;
#293 = PERSON ( 'NEURÈENÝ', 'NEURÈENÝ', 'NEURÈENÝ', ('NEURÈENÝ'), ('NEURÈENÝ'), ('NEURÈENÝ') ) ;
#294 = LINE ( 'NONE', #263, #184 ) ;
#295 =( LENGTH_UNIT ( ) NAMED_UNIT ( * ) SI_UNIT ( .MILLI., .METRE. ) );
#296 = CYLINDRICAL_SURFACE ( 'NONE', #236, 1.250000000000000000 ) ;
#297 = ADVANCED_FACE ( 'NONE', ( #255 ), #102, .T. ) ;
#298 = APPLICATION_CONTEXT ( 'configuration controlled 3d designs of mechanical parts and assemblies' ) ;
#299 = DIRECTION ( 'NONE',  ( 0.000000000000000000, 0.000000000000000000, 1.000000000000000000 ) ) ;
#300 = COORDINATED_UNIVERSAL_TIME_OFFSET ( 1, 0, .AHEAD. ) ;
#301 = TOROIDAL_SURFACE ( 'NONE', #112, 0.6999999999999999556, 0.2000000000000000111 ) ;
#302 = APPROVAL_PERSON_ORGANIZATION ( #21, #240, #182 ) ;
#303 = APPLICATION_PROTOCOL_DEFINITION ( 'international standard', 'config_control_design', 1994, #213 ) ;
#304 = PERSON_AND_ORGANIZATION ( #293, #158 ) ;
#305 = VERTEX_POINT ( 'NONE', #46 ) ;
#306 = APPROVAL_STATUS ( 'not_yet_approved' ) ;
#307 = ORIENTED_EDGE ( 'NONE', *, *, #1, .F. ) ;
ENDSEC;
END-ISO-10303-21;
