ISO-10303-21;
HEADER;
FILE_DESCRIPTION (( 'STEP AP203' ),
    '1' );
FILE_NAME ('8d49.STEP',
    '2022-07-07T09:58:05',
    ( '' ),
    ( '' ),
    'SwSTEP 2.0',
    'SolidWorks 2019',
    '' );
FILE_SCHEMA (( 'CONFIG_CONTROL_DESIGN' ));
ENDSEC;

DATA;
#1 = EDGE_CURVE ( 'NONE', #70, #286, #252, .T. ) ;
#2 = ORIENTED_EDGE ( 'NONE', *, *, #1, .T. ) ;
#3 = CARTESIAN_POINT ( 'NONE',  ( 0.000000000000000000, 0.000000000000000000, 635.0000000000000000 ) ) ;
#4 = DIRECTION ( 'NONE',  ( 1.000000000000000000, 0.000000000000000000, 0.000000000000000000 ) ) ;
#5 = DIRECTION ( 'NONE',  ( 0.000000000000000000, 0.000000000000000000, 1.000000000000000000 ) ) ;
#6 = EDGE_CURVE ( 'NONE', #96, #286, #157, .T. ) ;
#7 = DIRECTION ( 'NONE',  ( 0.000000000000000000, 0.000000000000000000, 1.000000000000000000 ) ) ;
#8 = APPROVAL_DATE_TIME ( #201, #116 ) ;
#9 = CYLINDRICAL_SURFACE ( 'NONE', #68, 7.000000000000000000 ) ;
#10 = APPROVAL ( #267, 'NEURÈENÝ' ) ;
#11 = APPROVAL_PERSON_ORGANIZATION ( #297, #30, #240 ) ;
#12 = CALENDAR_DATE ( 2022, 7, 7 ) ;
#13 = DIRECTION ( 'NONE',  ( -0.000000000000000000, -0.000000000000000000, -1.000000000000000000 ) ) ;
#14 = AXIS2_PLACEMENT_3D ( 'NONE', #32, #7, #189 ) ;
#15 = DATE_TIME_ROLE ( 'classification_date' ) ;
#16 = AXIS2_PLACEMENT_3D ( 'NONE', #142, #236, #31 ) ;
#17 = FACE_OUTER_BOUND ( 'NONE', #280, .T. ) ;
#18 = COORDINATED_UNIVERSAL_TIME_OFFSET ( 1, 0, .AHEAD. ) ;
#19 = DIRECTION ( 'NONE',  ( -0.000000000000000000, -0.000000000000000000, -1.000000000000000000 ) ) ;
#20 = ORIENTED_EDGE ( 'NONE', *, *, #205, .T. ) ;
#21 = EDGE_LOOP ( 'NONE', ( #114, #261 ) ) ;
#22 = EDGE_CURVE ( 'NONE', #200, #94, #233, .T. ) ;
#23 = CC_DESIGN_APPROVAL ( #10, ( #246 ) ) ;
#24 = EDGE_LOOP ( 'NONE', ( #229, #179, #230, #130 ) ) ;
#25 = VERTEX_POINT ( 'NONE', #265 ) ;
#26 = MANIFOLD_SOLID_BREP ( 'Zaoblit1', #54 ) ;
#27 = CARTESIAN_POINT ( 'NONE',  ( 0.000000000000000000, 0.000000000000000000, 5.199999999999982414 ) ) ;
#28 = APPLICATION_CONTEXT ( 'configuration controlled 3d designs of mechanical parts and assemblies' ) ;
#29 = DIRECTION ( 'NONE',  ( -0.000000000000000000, -0.000000000000000000, -1.000000000000000000 ) ) ;
#30 = APPROVAL ( #36, 'NEURÈENÝ' ) ;
#31 = DIRECTION ( 'NONE',  ( 1.000000000000000000, 0.000000000000000000, 0.000000000000000000 ) ) ;
#32 = CARTESIAN_POINT ( 'NONE',  ( 0.000000000000000000, 0.000000000000000000, 5.199999999999982414 ) ) ;
#33 = PRODUCT_DEFINITION_FORMATION_WITH_SPECIFIED_SOURCE ( 'LIBOVOLNÝ', '', #223, .NOT_KNOWN. ) ;
#34 = CIRCLE ( 'NONE', #159, 7.000000000000000000 ) ;
#35 = VECTOR ( 'NONE', #29, 1000.000000000000000 ) ;
#36 = APPROVAL_STATUS ( 'not_yet_approved' ) ;
#37 = EDGE_CURVE ( 'NONE', #25, #165, #264, .T. ) ;
#38 = FACE_OUTER_BOUND ( 'NONE', #221, .T. ) ;
#39 = DATE_AND_TIME ( #82, #228 ) ;
#40 = DIRECTION ( 'NONE',  ( 0.000000000000000000, 0.000000000000000000, 1.000000000000000000 ) ) ;
#41 = CARTESIAN_POINT ( 'NONE',  ( 0.000000000000000000, 0.000000000000000000, 0.000000000000000000 ) ) ;
#42 = CARTESIAN_POINT ( 'NONE',  ( 4.250000000000000000, 5.204748896376250699E-16, 5.199999999999982414 ) ) ;
#43 = PERSON_AND_ORGANIZATION_ROLE ( 'design_owner' ) ;
#44 = DIRECTION ( 'NONE',  ( 0.000000000000000000, 0.000000000000000000, 1.000000000000000000 ) ) ;
#45 = ORIENTED_EDGE ( 'NONE', *, *, #46, .F. ) ;
#46 = EDGE_CURVE ( 'NONE', #117, #129, #241, .T. ) ;
#47 = EDGE_CURVE ( 'NONE', #184, #96, #141, .T. ) ;
#48 = EDGE_LOOP ( 'NONE', ( #253, #89 ) ) ;
#49 = ORIENTED_EDGE ( 'NONE', *, *, #183, .F. ) ;
#50 = EDGE_CURVE ( 'NONE', #129, #165, #166, .T. ) ;
#51 = CARTESIAN_POINT ( 'NONE',  ( -7.000000000000000000, 0.000000000000000000, 5.000000000000000000 ) ) ;
#52 = CARTESIAN_POINT ( 'NONE',  ( -4.250000000000000000, 0.000000000000000000, 635.0000000000000000 ) ) ;
#53 = CARTESIAN_POINT ( 'NONE',  ( 4.250000000000000000, 5.204748896376250699E-16, 635.0000000000000000 ) ) ;
#54 = CLOSED_SHELL ( 'NONE', ( #287, #131, #190, #232, #171, #192, #306, #169, #149 ) ) ;
#55 = DIRECTION ( 'NONE',  ( 0.000000000000000000, 0.000000000000000000, 1.000000000000000000 ) ) ;
#56 = PERSON_AND_ORGANIZATION ( #196, #113 ) ;
#57 = AXIS2_PLACEMENT_3D ( 'NONE', #214, #75, #100 ) ;
#58 = DATE_AND_TIME ( #145, #133 ) ;
#59 = CARTESIAN_POINT ( 'NONE',  ( 0.000000000000000000, 0.000000000000000000, 0.000000000000000000 ) ) ;
#60 = PERSON_AND_ORGANIZATION ( #196, #113 ) ;
#61 = DIRECTION ( 'NONE',  ( 1.224646799147353207E-16, 1.000000000000000000, -0.000000000000000000 ) ) ;
#62 = DATE_AND_TIME ( #12, #185 ) ;
#63 = CARTESIAN_POINT ( 'NONE',  ( 0.000000000000000000, 0.000000000000000000, 5.000000000000000000 ) ) ;
#64 = ORIENTED_EDGE ( 'NONE', *, *, #50, .F. ) ;
#65 = APPROVAL_ROLE ( '' ) ;
#66 = DIRECTION ( 'NONE',  ( 1.000000000000000000, 0.000000000000000000, 0.000000000000000000 ) ) ;
#67 = AXIS2_PLACEMENT_3D ( 'NONE', #155, #44, #274 ) ;
#68 = AXIS2_PLACEMENT_3D ( 'NONE', #104, #150, #197 ) ;
#69 = CIRCLE ( 'NONE', #147, 4.250000000000000000 ) ;
#70 = VERTEX_POINT ( 'NONE', #234 ) ;
#71 = FACE_OUTER_BOUND ( 'NONE', #254, .T. ) ;
#72 = EDGE_LOOP ( 'NONE', ( #283, #160 ) ) ;
#73 = CARTESIAN_POINT ( 'NONE',  ( 7.000000000000000000, 8.572527594031473190E-16, 5.000000000000000000 ) ) ;
#74 = DIRECTION ( 'NONE',  ( 0.000000000000000000, -1.000000000000000000, 0.000000000000000000 ) ) ;
#75 = DIRECTION ( 'NONE',  ( -0.000000000000000000, -0.000000000000000000, -1.000000000000000000 ) ) ;
#76 = APPROVAL_PERSON_ORGANIZATION ( #299, #10, #65 ) ;
#77 = CARTESIAN_POINT ( 'NONE',  ( -4.450000000000000178, 5.449678256205721784E-16, 4.999999999999991118 ) ) ;
#78 = DIRECTION ( 'NONE',  ( 1.000000000000000000, 0.000000000000000000, -0.000000000000000000 ) ) ;
#79 = AXIS2_PLACEMENT_3D ( 'NONE', #170, #13, #269 ) ;
#80 = APPROVAL_DATE_TIME ( #62, #30 ) ;
#81 = DIRECTION ( 'NONE',  ( 0.000000000000000000, 0.000000000000000000, 1.000000000000000000 ) ) ;
#82 = CALENDAR_DATE ( 2022, 7, 7 ) ;
#83 = CARTESIAN_POINT ( 'NONE',  ( -4.450000000000000178, 5.449678256205721784E-16, 5.199999999999982414 ) ) ;
#84 = CC_DESIGN_DATE_AND_TIME_ASSIGNMENT ( #39, #275, ( #246 ) ) ;
#85 = ORIENTED_EDGE ( 'NONE', *, *, #50, .T. ) ;
#86 = DIRECTION ( 'NONE',  ( 1.000000000000000000, 0.000000000000000000, 0.000000000000000000 ) ) ;
#87 = DIRECTION ( 'NONE',  ( 1.000000000000000000, 0.000000000000000000, -0.000000000000000000 ) ) ;
#88 = DESIGN_CONTEXT ( 'detailed design', #91, 'design' ) ;
#89 = ORIENTED_EDGE ( 'NONE', *, *, #255, .T. ) ;
#90 = VECTOR ( 'NONE', #213, 1000.000000000000000 ) ;
#91 = APPLICATION_CONTEXT ( 'configuration controlled 3d designs of mechanical parts and assemblies' ) ;
#92 = ORIENTED_EDGE ( 'NONE', *, *, #6, .F. ) ;
#93 = ORIENTED_EDGE ( 'NONE', *, *, #143, .F. ) ;
#94 = VERTEX_POINT ( 'NONE', #121 ) ;
#95 = AXIS2_PLACEMENT_3D ( 'NONE', #3, #291, #167 ) ;
#96 = VERTEX_POINT ( 'NONE', #73 ) ;
#97 = CARTESIAN_POINT ( 'NONE',  ( 7.000000000000000000, 8.572527594031473190E-16, 5.000000000000000000 ) ) ;
#98 = CARTESIAN_POINT ( 'NONE',  ( 0.000000000000000000, 0.000000000000000000, 635.0000000000000000 ) ) ;
#99 = DIRECTION ( 'NONE',  ( 1.000000000000000000, 0.000000000000000000, 0.000000000000000000 ) ) ;
#100 = DIRECTION ( 'NONE',  ( -1.000000000000000000, 0.000000000000000000, 0.000000000000000000 ) ) ;
#101 = EDGE_CURVE ( 'NONE', #117, #25, #262, .T. ) ;
#102 = UNCERTAINTY_MEASURE_WITH_UNIT (LENGTH_MEASURE( 1.000000000000000082E-05 ), #268, 'distance_accuracy_value', 'NONE');
#103 = SHAPE_DEFINITION_REPRESENTATION ( #182, #222 ) ;
#104 = CARTESIAN_POINT ( 'NONE',  ( 0.000000000000000000, 0.000000000000000000, 5.000000000000000000 ) ) ;
#105 = CC_DESIGN_SECURITY_CLASSIFICATION ( #307, ( #33 ) ) ;
#106 = CARTESIAN_POINT ( 'NONE',  ( 7.000000000000000000, 8.572527594031473190E-16, 0.000000000000000000 ) ) ;
#107 = AXIS2_PLACEMENT_3D ( 'NONE', #119, #55, #289 ) ;
#108 = APPROVAL_ROLE ( '' ) ;
#109 = FACE_OUTER_BOUND ( 'NONE', #72, .T. ) ;
#110 = PERSON_AND_ORGANIZATION ( #196, #113 ) ;
#111 = DIRECTION ( 'NONE',  ( 0.000000000000000000, 0.000000000000000000, -1.000000000000000000 ) ) ;
#112 = CARTESIAN_POINT ( 'NONE',  ( 0.000000000000000000, 0.000000000000000000, 0.000000000000000000 ) ) ;
#113 = ORGANIZATION ( 'NEURÈENÝ', 'NEURÈENÝ', '' ) ;
#114 = ORIENTED_EDGE ( 'NONE', *, *, #1, .F. ) ;
#115 = TOROIDAL_SURFACE ( 'NONE', #14, 4.450000000000000178, 0.2000000000000000111 ) ;
#116 = APPROVAL ( #172, 'NEURÈENÝ' ) ;
#117 = VERTEX_POINT ( 'NONE', #260 ) ;
#118 = DIRECTION ( 'NONE',  ( 0.000000000000000000, 0.000000000000000000, 1.000000000000000000 ) ) ;
#119 = CARTESIAN_POINT ( 'NONE',  ( 0.000000000000000000, 0.000000000000000000, 635.0000000000000000 ) ) ;
#120 = CYLINDRICAL_SURFACE ( 'NONE', #95, 4.250000000000000000 ) ;
#121 = CARTESIAN_POINT ( 'NONE',  ( 4.450000000000000178, 0.000000000000000000, 4.999999999999991118 ) ) ;
#122 = COORDINATED_UNIVERSAL_TIME_OFFSET ( 1, 0, .AHEAD. ) ;
#123 = APPLICATION_PROTOCOL_DEFINITION ( 'international standard', 'config_control_design', 1994, #91 ) ;
#124 = DIRECTION ( 'NONE',  ( 1.000000000000000000, 0.000000000000000000, 0.000000000000000000 ) ) ;
#125 = EDGE_CURVE ( 'NONE', #129, #117, #69, .T. ) ;
#126 = DIRECTION ( 'NONE',  ( 0.000000000000000000, 0.000000000000000000, 1.000000000000000000 ) ) ;
#127 = FACE_OUTER_BOUND ( 'NONE', #48, .T. ) ;
#128 = CARTESIAN_POINT ( 'NONE',  ( -7.000000000000000000, 0.000000000000000000, 5.000000000000000000 ) ) ;
#129 = VERTEX_POINT ( 'NONE', #53 ) ;
#130 = ORIENTED_EDGE ( 'NONE', *, *, #158, .F. ) ;
#131 = ADVANCED_FACE ( 'NONE', ( #140 ), #120, .T. ) ;
#132 = EDGE_CURVE ( 'NONE', #184, #70, #164, .T. ) ;
#133 = LOCAL_TIME ( 11, 58, 5.000000000000000000, #218 ) ;
#134 = EDGE_LOOP ( 'NONE', ( #163, #208 ) ) ;
#135 = PRODUCT_RELATED_PRODUCT_CATEGORY ( 'detail', '', ( #223 ) ) ;
#136 = CIRCLE ( 'NONE', #79, 4.450000000000000178 ) ;
#137 = ORIENTED_EDGE ( 'NONE', *, *, #101, .F. ) ;
#138 = CC_DESIGN_PERSON_AND_ORGANIZATION_ASSIGNMENT ( #244, #151, ( #307 ) ) ;
#139 = AXIS2_PLACEMENT_3D ( 'NONE', #243, #40, #124 ) ;
#140 = FACE_OUTER_BOUND ( 'NONE', #204, .T. ) ;
#141 = CIRCLE ( 'NONE', #16, 7.000000000000000000 ) ;
#142 = CARTESIAN_POINT ( 'NONE',  ( 0.000000000000000000, 0.000000000000000000, 5.000000000000000000 ) ) ;
#143 = EDGE_CURVE ( 'NONE', #165, #25, #271, .T. ) ;
#144 = APPROVAL_PERSON_ORGANIZATION ( #110, #116, #108 ) ;
#145 = CALENDAR_DATE ( 2022, 7, 7 ) ;
#146 = FACE_OUTER_BOUND ( 'NONE', #21, .T. ) ;
#147 = AXIS2_PLACEMENT_3D ( 'NONE', #98, #263, #188 ) ;
#148 = PERSON_AND_ORGANIZATION ( #196, #113 ) ;
#149 = ADVANCED_FACE ( 'NONE', ( #71 ), #295, .F. ) ;
#150 = DIRECTION ( 'NONE',  ( -0.000000000000000000, -0.000000000000000000, -1.000000000000000000 ) ) ;
#151 = PERSON_AND_ORGANIZATION_ROLE ( 'classification_officer' ) ;
#152 = AXIS2_PLACEMENT_3D ( 'NONE', #41, #126, #86 ) ;
#153 = AXIS2_PLACEMENT_3D ( 'NONE', #27, #118, #210 ) ;
#154 = PERSON_AND_ORGANIZATION_ROLE ( 'design_supplier' ) ;
#155 = CARTESIAN_POINT ( 'NONE',  ( 0.000000000000000000, 0.000000000000000000, 635.0000000000000000 ) ) ;
#156 =( GEOMETRIC_REPRESENTATION_CONTEXT ( 3 ) GLOBAL_UNCERTAINTY_ASSIGNED_CONTEXT ( ( #102 ) ) GLOBAL_UNIT_ASSIGNED_CONTEXT ( ( #268, #237, #284 ) ) REPRESENTATION_CONTEXT ( 'NONE', 'WORKASPACE' ) );
#157 = LINE ( 'NONE', #97, #90 ) ;
#158 = EDGE_CURVE ( 'NONE', #165, #94, #302, .T. ) ;
#159 = AXIS2_PLACEMENT_3D ( 'NONE', #173, #242, #272 ) ;
#160 = ORIENTED_EDGE ( 'NONE', *, *, #125, .T. ) ;
#161 = AXIS2_PLACEMENT_3D ( 'NONE', #231, #74, #111 ) ;
#162 = ORIENTED_EDGE ( 'NONE', *, *, #158, .T. ) ;
#163 = ORIENTED_EDGE ( 'NONE', *, *, #225, .T. ) ;
#164 = LINE ( 'NONE', #51, #226 ) ;
#165 = VERTEX_POINT ( 'NONE', #42 ) ;
#166 = LINE ( 'NONE', #194, #258 ) ;
#167 = DIRECTION ( 'NONE',  ( -1.000000000000000000, 0.000000000000000000, 0.000000000000000000 ) ) ;
#168 = CARTESIAN_POINT ( 'NONE',  ( 0.000000000000000000, 0.000000000000000000, 5.000000000000000000 ) ) ;
#169 = ADVANCED_FACE ( 'NONE', ( #109 ), #303, .T. ) ;
#170 = CARTESIAN_POINT ( 'NONE',  ( 0.000000000000000000, 0.000000000000000000, 5.000000000000000000 ) ) ;
#171 = ADVANCED_FACE ( 'NONE', ( #276, #127 ), #219, .T. ) ;
#172 = APPROVAL_STATUS ( 'not_yet_approved' ) ;
#173 = CARTESIAN_POINT ( 'NONE',  ( 0.000000000000000000, 0.000000000000000000, 0.000000000000000000 ) ) ;
#174 = AXIS2_PLACEMENT_3D ( 'NONE', #168, #191, #4 ) ;
#175 = PERSON_AND_ORGANIZATION_ROLE ( 'creator' ) ;
#176 = DIRECTION ( 'NONE',  ( -1.000000000000000000, 1.224646799147353454E-16, 0.000000000000000000 ) ) ;
#177 = CALENDAR_DATE ( 2022, 7, 7 ) ;
#178 = CYLINDRICAL_SURFACE ( 'NONE', #209, 7.000000000000000000 ) ;
#179 = ORIENTED_EDGE ( 'NONE', *, *, #183, .T. ) ;
#180 = COORDINATED_UNIVERSAL_TIME_OFFSET ( 1, 0, .AHEAD. ) ;
#181 = DIRECTION ( 'NONE',  ( 0.000000000000000000, 0.000000000000000000, 1.000000000000000000 ) ) ;
#182 = PRODUCT_DEFINITION_SHAPE ( 'NONE', 'NONE',  #246 ) ;
#183 = EDGE_CURVE ( 'NONE', #25, #200, #279, .T. ) ;
#184 = VERTEX_POINT ( 'NONE', #128 ) ;
#185 = LOCAL_TIME ( 11, 58, 5.000000000000000000, #180 ) ;
#186 = CC_DESIGN_PERSON_AND_ORGANIZATION_ASSIGNMENT ( #247, #43, ( #223 ) ) ;
#187 = ORIENTED_EDGE ( 'NONE', *, *, #143, .T. ) ;
#188 = DIRECTION ( 'NONE',  ( 1.000000000000000000, 0.000000000000000000, 0.000000000000000000 ) ) ;
#189 = DIRECTION ( 'NONE',  ( 1.000000000000000000, 0.000000000000000000, 0.000000000000000000 ) ) ;
#190 = ADVANCED_FACE ( 'NONE', ( #17 ), #178, .T. ) ;
#191 = DIRECTION ( 'NONE',  ( -0.000000000000000000, -0.000000000000000000, -1.000000000000000000 ) ) ;
#192 = ADVANCED_FACE ( 'NONE', ( #146 ), #294, .F. ) ;
#193 = FACE_OUTER_BOUND ( 'NONE', #24, .T. ) ;
#194 = CARTESIAN_POINT ( 'NONE',  ( 4.250000000000000000, 5.204748896376250699E-16, 635.0000000000000000 ) ) ;
#195 = DIRECTION ( 'NONE',  ( 0.000000000000000000, 0.000000000000000000, 1.000000000000000000 ) ) ;
#196 = PERSON ( 'NEURÈENÝ', 'NEURÈENÝ', 'NEURÈENÝ', ('NEURÈENÝ'), ('NEURÈENÝ'), ('NEURÈENÝ') ) ;
#197 = DIRECTION ( 'NONE',  ( -1.000000000000000000, 0.000000000000000000, 0.000000000000000000 ) ) ;
#198 = LOCAL_TIME ( 11, 58, 5.000000000000000000, #216 ) ;
#199 = CARTESIAN_POINT ( 'NONE',  ( 0.000000000000000000, 0.000000000000000000, 5.000000000000000000 ) ) ;
#200 = VERTEX_POINT ( 'NONE', #77 ) ;
#201 = DATE_AND_TIME ( #215, #206 ) ;
#202 = DIRECTION ( 'NONE',  ( -1.000000000000000000, 0.000000000000000000, 0.000000000000000000 ) ) ;
#203 = ORIENTED_EDGE ( 'NONE', *, *, #255, .F. ) ;
#204 = EDGE_LOOP ( 'NONE', ( #224, #85, #187, #137 ) ) ;
#205 = EDGE_CURVE ( 'NONE', #286, #70, #34, .T. ) ;
#206 = LOCAL_TIME ( 11, 58, 5.000000000000000000, #122 ) ;
#207 = CC_DESIGN_PERSON_AND_ORGANIZATION_ASSIGNMENT ( #60, #154, ( #33 ) ) ;
#208 = ORIENTED_EDGE ( 'NONE', *, *, #22, .T. ) ;
#209 = AXIS2_PLACEMENT_3D ( 'NONE', #63, #19, #202 ) ;
#210 = DIRECTION ( 'NONE',  ( 1.000000000000000000, 0.000000000000000000, 0.000000000000000000 ) ) ;
#211 = CARTESIAN_POINT ( 'NONE',  ( 0.000000000000000000, 0.000000000000000000, 5.199999999999982414 ) ) ;
#212 = DIRECTION ( 'NONE',  ( 1.000000000000000000, 0.000000000000000000, 0.000000000000000000 ) ) ;
#213 = DIRECTION ( 'NONE',  ( -0.000000000000000000, -0.000000000000000000, -1.000000000000000000 ) ) ;
#214 = CARTESIAN_POINT ( 'NONE',  ( 0.000000000000000000, 0.000000000000000000, 635.0000000000000000 ) ) ;
#215 = CALENDAR_DATE ( 2022, 7, 7 ) ;
#216 = COORDINATED_UNIVERSAL_TIME_OFFSET ( 1, 0, .AHEAD. ) ;
#217 = CC_DESIGN_APPROVAL ( #116, ( #307 ) ) ;
#218 = COORDINATED_UNIVERSAL_TIME_OFFSET ( 1, 0, .AHEAD. ) ;
#219 = PLANE ( 'NONE',  #257 ) ;
#220 = DATE_AND_TIME ( #177, #198 ) ;
#221 = EDGE_LOOP ( 'NONE', ( #92, #251, #278, #2 ) ) ;
#222 = ADVANCED_BREP_SHAPE_REPRESENTATION ( '8d49', ( #26, #152 ), #156 ) ;
#223 = PRODUCT ( '8d49', '8d49', '', ( #250 ) ) ;
#224 = ORIENTED_EDGE ( 'NONE', *, *, #125, .F. ) ;
#225 = EDGE_CURVE ( 'NONE', #94, #200, #136, .T. ) ;
#226 = VECTOR ( 'NONE', #288, 1000.000000000000000 ) ;
#227 = ORIENTED_EDGE ( 'NONE', *, *, #6, .T. ) ;
#228 = LOCAL_TIME ( 11, 58, 5.000000000000000000, #18 ) ;
#229 = ORIENTED_EDGE ( 'NONE', *, *, #37, .F. ) ;
#230 = ORIENTED_EDGE ( 'NONE', *, *, #225, .F. ) ;
#231 = CARTESIAN_POINT ( 'NONE',  ( 4.450000000000000178, 0.000000000000000000, 5.199999999999982414 ) ) ;
#232 = ADVANCED_FACE ( 'NONE', ( #38 ), #9, .T. ) ;
#233 = CIRCLE ( 'NONE', #174, 4.450000000000000178 ) ;
#234 = CARTESIAN_POINT ( 'NONE',  ( -7.000000000000000000, 0.000000000000000000, 0.000000000000000000 ) ) ;
#235 = DIRECTION ( 'NONE',  ( 0.000000000000000000, 0.000000000000000000, 1.000000000000000000 ) ) ;
#236 = DIRECTION ( 'NONE',  ( 0.000000000000000000, 0.000000000000000000, 1.000000000000000000 ) ) ;
#237 =( NAMED_UNIT ( * ) PLANE_ANGLE_UNIT ( ) SI_UNIT ( $, .RADIAN. ) );
#238 = CC_DESIGN_APPROVAL ( #30, ( #33 ) ) ;
#239 = CIRCLE ( 'NONE', #139, 7.000000000000000000 ) ;
#240 = APPROVAL_ROLE ( '' ) ;
#241 = CIRCLE ( 'NONE', #107, 4.250000000000000000 ) ;
#242 = DIRECTION ( 'NONE',  ( 0.000000000000000000, 0.000000000000000000, 1.000000000000000000 ) ) ;
#243 = CARTESIAN_POINT ( 'NONE',  ( 0.000000000000000000, 0.000000000000000000, 5.000000000000000000 ) ) ;
#244 = PERSON_AND_ORGANIZATION ( #196, #113 ) ;
#245 = AXIS2_PLACEMENT_3D ( 'NONE', #290, #235, #212 ) ;
#246 = PRODUCT_DEFINITION ( 'NEZNÁMÝ', '', #33, #88 ) ;
#247 = PERSON_AND_ORGANIZATION ( #196, #113 ) ;
#248 = EDGE_LOOP ( 'NONE', ( #64, #45, #256, #304 ) ) ;
#249 = CC_DESIGN_DATE_AND_TIME_ASSIGNMENT ( #58, #15, ( #307 ) ) ;
#250 = MECHANICAL_CONTEXT ( 'NONE', #28, 'mechanical' ) ;
#251 = ORIENTED_EDGE ( 'NONE', *, *, #47, .F. ) ;
#252 = CIRCLE ( 'NONE', #298, 7.000000000000000000 ) ;
#253 = ORIENTED_EDGE ( 'NONE', *, *, #47, .T. ) ;
#254 = EDGE_LOOP ( 'NONE', ( #49, #93, #162, #300 ) ) ;
#255 = EDGE_CURVE ( 'NONE', #96, #184, #239, .T. ) ;
#256 = ORIENTED_EDGE ( 'NONE', *, *, #101, .T. ) ;
#257 = AXIS2_PLACEMENT_3D ( 'NONE', #199, #81, #87 ) ;
#258 = VECTOR ( 'NONE', #292, 1000.000000000000000 ) ;
#259 = CC_DESIGN_PERSON_AND_ORGANIZATION_ASSIGNMENT ( #56, #277, ( #246 ) ) ;
#260 = CARTESIAN_POINT ( 'NONE',  ( -4.250000000000000000, 0.000000000000000000, 635.0000000000000000 ) ) ;
#261 = ORIENTED_EDGE ( 'NONE', *, *, #205, .F. ) ;
#262 = LINE ( 'NONE', #52, #35 ) ;
#263 = DIRECTION ( 'NONE',  ( 0.000000000000000000, 0.000000000000000000, 1.000000000000000000 ) ) ;
#264 = CIRCLE ( 'NONE', #281, 4.250000000000000000 ) ;
#265 = CARTESIAN_POINT ( 'NONE',  ( -4.250000000000000000, 0.000000000000000000, 5.199999999999982414 ) ) ;
#266 = CYLINDRICAL_SURFACE ( 'NONE', #57, 4.250000000000000000 ) ;
#267 = APPROVAL_STATUS ( 'not_yet_approved' ) ;
#268 =( LENGTH_UNIT ( ) NAMED_UNIT ( * ) SI_UNIT ( .MILLI., .METRE. ) );
#269 = DIRECTION ( 'NONE',  ( 1.000000000000000000, 0.000000000000000000, 0.000000000000000000 ) ) ;
#270 = SECURITY_CLASSIFICATION_LEVEL ( 'unclassified' ) ;
#271 = CIRCLE ( 'NONE', #245, 4.250000000000000000 ) ;
#272 = DIRECTION ( 'NONE',  ( 1.000000000000000000, 0.000000000000000000, 0.000000000000000000 ) ) ;
#273 = APPLICATION_PROTOCOL_DEFINITION ( 'international standard', 'config_control_design', 1994, #28 ) ;
#274 = DIRECTION ( 'NONE',  ( 1.000000000000000000, 0.000000000000000000, -0.000000000000000000 ) ) ;
#275 = DATE_TIME_ROLE ( 'creation_date' ) ;
#276 = FACE_BOUND ( 'NONE', #134, .T. ) ;
#277 = PERSON_AND_ORGANIZATION_ROLE ( 'creator' ) ;
#278 = ORIENTED_EDGE ( 'NONE', *, *, #132, .T. ) ;
#279 = CIRCLE ( 'NONE', #305, 0.1999999999999996503 ) ;
#280 = EDGE_LOOP ( 'NONE', ( #203, #227, #20, #285 ) ) ;
#281 = AXIS2_PLACEMENT_3D ( 'NONE', #211, #5, #99 ) ;
#282 = CC_DESIGN_PERSON_AND_ORGANIZATION_ASSIGNMENT ( #148, #175, ( #33 ) ) ;
#283 = ORIENTED_EDGE ( 'NONE', *, *, #46, .T. ) ;
#284 =( NAMED_UNIT ( * ) SI_UNIT ( $, .STERADIAN. ) SOLID_ANGLE_UNIT ( ) );
#285 = ORIENTED_EDGE ( 'NONE', *, *, #132, .F. ) ;
#286 = VERTEX_POINT ( 'NONE', #106 ) ;
#287 = ADVANCED_FACE ( 'NONE', ( #193 ), #115, .F. ) ;
#288 = DIRECTION ( 'NONE',  ( -0.000000000000000000, -0.000000000000000000, -1.000000000000000000 ) ) ;
#289 = DIRECTION ( 'NONE',  ( 1.000000000000000000, 0.000000000000000000, 0.000000000000000000 ) ) ;
#290 = CARTESIAN_POINT ( 'NONE',  ( 0.000000000000000000, 0.000000000000000000, 5.199999999999982414 ) ) ;
#291 = DIRECTION ( 'NONE',  ( -0.000000000000000000, -0.000000000000000000, -1.000000000000000000 ) ) ;
#292 = DIRECTION ( 'NONE',  ( -0.000000000000000000, -0.000000000000000000, -1.000000000000000000 ) ) ;
#293 = FACE_OUTER_BOUND ( 'NONE', #248, .T. ) ;
#294 = PLANE ( 'NONE',  #296 ) ;
#295 = TOROIDAL_SURFACE ( 'NONE', #153, 4.450000000000000178, 0.2000000000000000111 ) ;
#296 = AXIS2_PLACEMENT_3D ( 'NONE', #59, #195, #78 ) ;
#297 = PERSON_AND_ORGANIZATION ( #196, #113 ) ;
#298 = AXIS2_PLACEMENT_3D ( 'NONE', #112, #181, #66 ) ;
#299 = PERSON_AND_ORGANIZATION ( #196, #113 ) ;
#300 = ORIENTED_EDGE ( 'NONE', *, *, #22, .F. ) ;
#301 = APPROVAL_DATE_TIME ( #220, #10 ) ;
#302 = CIRCLE ( 'NONE', #161, 0.1999999999999996503 ) ;
#303 = PLANE ( 'NONE',  #67 ) ;
#304 = ORIENTED_EDGE ( 'NONE', *, *, #37, .T. ) ;
#305 = AXIS2_PLACEMENT_3D ( 'NONE', #83, #61, #176 ) ;
#306 = ADVANCED_FACE ( 'NONE', ( #293 ), #266, .T. ) ;
#307 = SECURITY_CLASSIFICATION ( '', '', #270 ) ;
ENDSEC;
END-ISO-10303-21;
