ISO-10303-21;
HEADER;
FILE_DESCRIPTION (( 'STEP AP203' ),
    '1' );
FILE_NAME ('96b5.STEP',
    '2022-07-07T10:09:56',
    ( '' ),
    ( '' ),
    'SwSTEP 2.0',
    'SolidWorks 2019',
    '' );
FILE_SCHEMA (( 'CONFIG_CONTROL_DESIGN' ));
ENDSEC;

DATA;
#1 = ORIENTED_EDGE ( 'NONE', *, *, #78, .F. ) ;
#2 = ORIENTED_EDGE ( 'NONE', *, *, #206, .T. ) ;
#3 = PLANE ( 'NONE',  #238 ) ;
#4 = CARTESIAN_POINT ( 'NONE',  ( 0.000000000000000000, 0.000000000000000000, 5.199999999999996625 ) ) ;
#5 = AXIS2_PLACEMENT_3D ( 'NONE', #241, #61, #243 ) ;
#6 = CARTESIAN_POINT ( 'NONE',  ( 0.000000000000000000, 0.000000000000000000, 5.000000000000000000 ) ) ;
#7 = DIRECTION ( 'NONE',  ( -0.000000000000000000, -0.000000000000000000, -1.000000000000000000 ) ) ;
#8 = APPROVAL ( #178, 'NEURÈENÝ' ) ;
#9 = CIRCLE ( 'NONE', #234, 3.250000000000000444 ) ;
#10 = DIRECTION ( 'NONE',  ( -0.000000000000000000, -0.000000000000000000, -1.000000000000000000 ) ) ;
#11 = DIRECTION ( 'NONE',  ( 1.000000000000000000, 0.000000000000000000, 0.000000000000000000 ) ) ;
#12 = ADVANCED_FACE ( 'NONE', ( #259 ), #75, .T. ) ;
#13 = CIRCLE ( 'NONE', #59, 6.000000000000000888 ) ;
#14 = CC_DESIGN_APPROVAL ( #295, ( #204 ) ) ;
#15 = CARTESIAN_POINT ( 'NONE',  ( 3.250000000000000444, 3.980102097228898231E-16, 5.199999999999996625 ) ) ;
#16 = COORDINATED_UNIVERSAL_TIME_OFFSET ( 1, 0, .AHEAD. ) ;
#17 = FACE_OUTER_BOUND ( 'NONE', #159, .T. ) ;
#18 = PERSON_AND_ORGANIZATION_ROLE ( 'creator' ) ;
#19 = CC_DESIGN_PERSON_AND_ORGANIZATION_ASSIGNMENT ( #271, #23, ( #25 ) ) ;
#20 = DATE_AND_TIME ( #136, #57 ) ;
#21 = AXIS2_PLACEMENT_3D ( 'NONE', #4, #33, #191 ) ;
#22 = APPROVAL_PERSON_ORGANIZATION ( #64, #8, #202 ) ;
#23 = PERSON_AND_ORGANIZATION_ROLE ( 'design_owner' ) ;
#24 = APPROVAL_DATE_TIME ( #270, #121 ) ;
#25 = PRODUCT ( '96b5', '96b5', '', ( #246 ) ) ;
#26 = ORIENTED_EDGE ( 'NONE', *, *, #206, .F. ) ;
#27 = ORIENTED_EDGE ( 'NONE', *, *, #190, .T. ) ;
#28 = ORIENTED_EDGE ( 'NONE', *, *, #227, .F. ) ;
#29 = DIRECTION ( 'NONE',  ( 0.000000000000000000, -1.000000000000000000, 0.000000000000000000 ) ) ;
#30 = CARTESIAN_POINT ( 'NONE',  ( 3.450000000000000178, 0.000000000000000000, 5.199999999999996625 ) ) ;
#31 = DIRECTION ( 'NONE',  ( 1.000000000000000000, 0.000000000000000000, 0.000000000000000000 ) ) ;
#32 = TOROIDAL_SURFACE ( 'NONE', #142, 3.450000000000000178, 0.2000000000000000111 ) ;
#33 = DIRECTION ( 'NONE',  ( 0.000000000000000000, 0.000000000000000000, 1.000000000000000000 ) ) ;
#34 = CC_DESIGN_APPROVAL ( #121, ( #293 ) ) ;
#35 = CARTESIAN_POINT ( 'NONE',  ( 6.000000000000000888, 7.347880794884120722E-16, 0.000000000000000000 ) ) ;
#36 = DIRECTION ( 'NONE',  ( -1.000000000000000000, 0.000000000000000000, 0.000000000000000000 ) ) ;
#37 = ADVANCED_BREP_SHAPE_REPRESENTATION ( '96b5', ( #286, #302 ), #149 ) ;
#38 = FACE_BOUND ( 'NONE', #188, .T. ) ;
#39 = CARTESIAN_POINT ( 'NONE',  ( -3.250000000000000444, 0.000000000000000000, 5.199999999999996625 ) ) ;
#40 = APPLICATION_CONTEXT ( 'configuration controlled 3d designs of mechanical parts and assemblies' ) ;
#41 = APPROVAL_ROLE ( '' ) ;
#42 = CC_DESIGN_PERSON_AND_ORGANIZATION_ASSIGNMENT ( #183, #244, ( #250 ) ) ;
#43 = APPLICATION_PROTOCOL_DEFINITION ( 'international standard', 'config_control_design', 1994, #40 ) ;
#44 = AXIS2_PLACEMENT_3D ( 'NONE', #30, #29, #54 ) ;
#45 = VERTEX_POINT ( 'NONE', #100 ) ;
#46 = CALENDAR_DATE ( 2022, 7, 7 ) ;
#47 = ORIENTED_EDGE ( 'NONE', *, *, #260, .F. ) ;
#48 = EDGE_CURVE ( 'NONE', #272, #229, #114, .T. ) ;
#49 = ORIENTED_EDGE ( 'NONE', *, *, #86, .T. ) ;
#50 = ORIENTED_EDGE ( 'NONE', *, *, #245, .F. ) ;
#51 = DIRECTION ( 'NONE',  ( -0.000000000000000000, -0.000000000000000000, -1.000000000000000000 ) ) ;
#52 = AXIS2_PLACEMENT_3D ( 'NONE', #108, #10, #220 ) ;
#53 = DIRECTION ( 'NONE',  ( 0.000000000000000000, 0.000000000000000000, 1.000000000000000000 ) ) ;
#54 = DIRECTION ( 'NONE',  ( 0.000000000000000000, 0.000000000000000000, -1.000000000000000000 ) ) ;
#55 = CARTESIAN_POINT ( 'NONE',  ( 0.000000000000000000, 0.000000000000000000, 105.0000000000000142 ) ) ;
#56 = AXIS2_PLACEMENT_3D ( 'NONE', #297, #156, #62 ) ;
#57 = LOCAL_TIME ( 12, 9, 56.00000000000000000, #301 ) ;
#58 = DIRECTION ( 'NONE',  ( 0.000000000000000000, 0.000000000000000000, 1.000000000000000000 ) ) ;
#59 = AXIS2_PLACEMENT_3D ( 'NONE', #173, #58, #150 ) ;
#60 = ADVANCED_FACE ( 'NONE', ( #148 ), #3, .F. ) ;
#61 = DIRECTION ( 'NONE',  ( 0.000000000000000000, 0.000000000000000000, 1.000000000000000000 ) ) ;
#62 = DIRECTION ( 'NONE',  ( 1.000000000000000000, 0.000000000000000000, 0.000000000000000000 ) ) ;
#63 = APPLICATION_PROTOCOL_DEFINITION ( 'international standard', 'config_control_design', 1994, #151 ) ;
#64 = PERSON_AND_ORGANIZATION ( #124, #115 ) ;
#65 = ORIENTED_EDGE ( 'NONE', *, *, #268, .F. ) ;
#66 = PERSON_AND_ORGANIZATION_ROLE ( 'design_supplier' ) ;
#67 = AXIS2_PLACEMENT_3D ( 'NONE', #199, #300, #290 ) ;
#68 = EDGE_LOOP ( 'NONE', ( #306, #26, #165, #140 ) ) ;
#69 = VERTEX_POINT ( 'NONE', #146 ) ;
#70 = ORIENTED_EDGE ( 'NONE', *, *, #78, .T. ) ;
#71 = ADVANCED_FACE ( 'NONE', ( #170 ), #254, .T. ) ;
#72 = AXIS2_PLACEMENT_3D ( 'NONE', #198, #111, #36 ) ;
#73 = DIRECTION ( 'NONE',  ( -1.000000000000000000, 0.000000000000000000, 0.000000000000000000 ) ) ;
#74 = CC_DESIGN_SECURITY_CLASSIFICATION ( #293, ( #250 ) ) ;
#75 = CYLINDRICAL_SURFACE ( 'NONE', #99, 6.000000000000000888 ) ;
#76 = FACE_OUTER_BOUND ( 'NONE', #230, .T. ) ;
#77 = DIRECTION ( 'NONE',  ( -0.000000000000000000, -0.000000000000000000, -1.000000000000000000 ) ) ;
#78 = EDGE_CURVE ( 'NONE', #253, #45, #125, .T. ) ;
#79 = AXIS2_PLACEMENT_3D ( 'NONE', #130, #82, #11 ) ;
#80 = CARTESIAN_POINT ( 'NONE',  ( 6.000000000000000888, 7.347880794884120722E-16, 5.000000000000000000 ) ) ;
#81 = FACE_OUTER_BOUND ( 'NONE', #122, .T. ) ;
#82 = DIRECTION ( 'NONE',  ( 0.000000000000000000, 0.000000000000000000, 1.000000000000000000 ) ) ;
#83 = CARTESIAN_POINT ( 'NONE',  ( 0.000000000000000000, 0.000000000000000000, 5.000000000000000000 ) ) ;
#84 = APPROVAL_STATUS ( 'not_yet_approved' ) ;
#85 = DIRECTION ( 'NONE',  ( 1.000000000000000000, 0.000000000000000000, -0.000000000000000000 ) ) ;
#86 = EDGE_CURVE ( 'NONE', #208, #228, #153, .T. ) ;
#87 = DATE_AND_TIME ( #46, #155 ) ;
#88 = TOROIDAL_SURFACE ( 'NONE', #249, 3.450000000000000178, 0.2000000000000000111 ) ;
#89 = DATE_AND_TIME ( #224, #235 ) ;
#90 = APPROVAL_DATE_TIME ( #304, #8 ) ;
#91 = ORIENTED_EDGE ( 'NONE', *, *, #237, .F. ) ;
#92 = EDGE_CURVE ( 'NONE', #280, #253, #9, .T. ) ;
#93 = VECTOR ( 'NONE', #7, 1000.000000000000000 ) ;
#94 = EDGE_LOOP ( 'NONE', ( #207, #278, #248, #281 ) ) ;
#95 = ORIENTED_EDGE ( 'NONE', *, *, #186, .F. ) ;
#96 = CC_DESIGN_PERSON_AND_ORGANIZATION_ASSIGNMENT ( #182, #18, ( #204 ) ) ;
#97 = ORIENTED_EDGE ( 'NONE', *, *, #227, .T. ) ;
#98 = CYLINDRICAL_SURFACE ( 'NONE', #129, 3.250000000000000444 ) ;
#99 = AXIS2_PLACEMENT_3D ( 'NONE', #166, #262, #73 ) ;
#100 = CARTESIAN_POINT ( 'NONE',  ( 3.450000000000000178, 0.000000000000000000, 4.999999999999998224 ) ) ;
#101 = LOCAL_TIME ( 12, 9, 56.00000000000000000, #225 ) ;
#102 = DIRECTION ( 'NONE',  ( -1.000000000000000000, 0.000000000000000000, 0.000000000000000000 ) ) ;
#103 = ADVANCED_FACE ( 'NONE', ( #104 ), #88, .F. ) ;
#104 = FACE_OUTER_BOUND ( 'NONE', #187, .T. ) ;
#105 = AXIS2_PLACEMENT_3D ( 'NONE', #55, #144, #31 ) ;
#106 = LINE ( 'NONE', #221, #288 ) ;
#107 = DIRECTION ( 'NONE',  ( 0.000000000000000000, 0.000000000000000000, 1.000000000000000000 ) ) ;
#108 = CARTESIAN_POINT ( 'NONE',  ( 0.000000000000000000, 0.000000000000000000, 5.000000000000000000 ) ) ;
#109 = CARTESIAN_POINT ( 'NONE',  ( 3.250000000000000444, 3.980102097228898231E-16, 105.0000000000000142 ) ) ;
#110 = CALENDAR_DATE ( 2022, 7, 7 ) ;
#111 = DIRECTION ( 'NONE',  ( -0.000000000000000000, -0.000000000000000000, -1.000000000000000000 ) ) ;
#112 = CALENDAR_DATE ( 2022, 7, 7 ) ;
#113 = PERSON_AND_ORGANIZATION ( #124, #115 ) ;
#114 = CIRCLE ( 'NONE', #105, 3.250000000000000444 ) ;
#115 = ORGANIZATION ( 'NEURÈENÝ', 'NEURÈENÝ', '' ) ;
#116 = DATE_TIME_ROLE ( 'creation_date' ) ;
#117 = EDGE_LOOP ( 'NONE', ( #91, #256 ) ) ;
#118 =( NAMED_UNIT ( * ) SI_UNIT ( $, .STERADIAN. ) SOLID_ANGLE_UNIT ( ) );
#119 = ORIENTED_EDGE ( 'NONE', *, *, #260, .T. ) ;
#120 = ORIENTED_EDGE ( 'NONE', *, *, #263, .F. ) ;
#121 = APPROVAL ( #269, 'NEURÈENÝ' ) ;
#122 = EDGE_LOOP ( 'NONE', ( #2, #119 ) ) ;
#123 = DIRECTION ( 'NONE',  ( 0.000000000000000000, 0.000000000000000000, 1.000000000000000000 ) ) ;
#124 = PERSON ( 'NEURÈENÝ', 'NEURÈENÝ', 'NEURÈENÝ', ('NEURÈENÝ'), ('NEURÈENÝ'), ('NEURÈENÝ') ) ;
#125 = CIRCLE ( 'NONE', #44, 0.1999999999999996503 ) ;
#126 = CARTESIAN_POINT ( 'NONE',  ( 0.000000000000000000, 0.000000000000000000, 5.199999999999996625 ) ) ;
#127 = LOCAL_TIME ( 12, 9, 56.00000000000000000, #16 ) ;
#128 = CARTESIAN_POINT ( 'NONE',  ( 3.250000000000000444, 3.980102097228898231E-16, 105.0000000000000142 ) ) ;
#129 = AXIS2_PLACEMENT_3D ( 'NONE', #172, #145, #211 ) ;
#130 = CARTESIAN_POINT ( 'NONE',  ( 0.000000000000000000, 0.000000000000000000, 105.0000000000000142 ) ) ;
#131 = PLANE ( 'NONE',  #161 ) ;
#132 = CIRCLE ( 'NONE', #21, 3.250000000000000444 ) ;
#133 = DIRECTION ( 'NONE',  ( 1.000000000000000000, 0.000000000000000000, 0.000000000000000000 ) ) ;
#134 = PERSON_AND_ORGANIZATION ( #124, #115 ) ;
#135 = APPROVAL_DATE_TIME ( #20, #295 ) ;
#136 = CALENDAR_DATE ( 2022, 7, 7 ) ;
#137 = AXIS2_PLACEMENT_3D ( 'NONE', #195, #218, #197 ) ;
#138 = VERTEX_POINT ( 'NONE', #189 ) ;
#139 = SECURITY_CLASSIFICATION_LEVEL ( 'unclassified' ) ;
#140 = ORIENTED_EDGE ( 'NONE', *, *, #237, .T. ) ;
#141 = ORIENTED_EDGE ( 'NONE', *, *, #152, .F. ) ;
#142 = AXIS2_PLACEMENT_3D ( 'NONE', #267, #265, #133 ) ;
#143 = EDGE_LOOP ( 'NONE', ( #47, #282, #49, #276 ) ) ;
#144 = DIRECTION ( 'NONE',  ( 0.000000000000000000, 0.000000000000000000, 1.000000000000000000 ) ) ;
#145 = DIRECTION ( 'NONE',  ( -0.000000000000000000, -0.000000000000000000, -1.000000000000000000 ) ) ;
#146 = CARTESIAN_POINT ( 'NONE',  ( -6.000000000000000888, 0.000000000000000000, 5.000000000000000000 ) ) ;
#147 = CIRCLE ( 'NONE', #52, 3.450000000000000178 ) ;
#148 = FACE_OUTER_BOUND ( 'NONE', #117, .T. ) ;
#149 =( GEOMETRIC_REPRESENTATION_CONTEXT ( 3 ) GLOBAL_UNCERTAINTY_ASSIGNED_CONTEXT ( ( #299 ) ) GLOBAL_UNIT_ASSIGNED_CONTEXT ( ( #154, #264, #118 ) ) REPRESENTATION_CONTEXT ( 'NONE', 'WORKASPACE' ) );
#150 = DIRECTION ( 'NONE',  ( 1.000000000000000000, 0.000000000000000000, 0.000000000000000000 ) ) ;
#151 = APPLICATION_CONTEXT ( 'configuration controlled 3d designs of mechanical parts and assemblies' ) ;
#152 = EDGE_CURVE ( 'NONE', #272, #280, #213, .T. ) ;
#153 = CIRCLE ( 'NONE', #261, 6.000000000000000888 ) ;
#154 =( LENGTH_UNIT ( ) NAMED_UNIT ( * ) SI_UNIT ( .MILLI., .METRE. ) );
#155 = LOCAL_TIME ( 12, 9, 56.00000000000000000, #200 ) ;
#156 = DIRECTION ( 'NONE',  ( -0.000000000000000000, -0.000000000000000000, -1.000000000000000000 ) ) ;
#157 = PLANE ( 'NONE',  #67 ) ;
#158 = APPROVAL_ROLE ( '' ) ;
#159 = EDGE_LOOP ( 'NONE', ( #203, #163 ) ) ;
#160 = PERSON_AND_ORGANIZATION ( #124, #115 ) ;
#161 = AXIS2_PLACEMENT_3D ( 'NONE', #83, #107, #85 ) ;
#162 = ORIENTED_EDGE ( 'NONE', *, *, #92, .F. ) ;
#163 = ORIENTED_EDGE ( 'NONE', *, *, #245, .T. ) ;
#164 = ADVANCED_FACE ( 'NONE', ( #76 ), #98, .T. ) ;
#165 = ORIENTED_EDGE ( 'NONE', *, *, #296, .T. ) ;
#166 = CARTESIAN_POINT ( 'NONE',  ( 0.000000000000000000, 0.000000000000000000, 5.000000000000000000 ) ) ;
#167 = CIRCLE ( 'NONE', #56, 3.450000000000000178 ) ;
#168 = APPROVAL_PERSON_ORGANIZATION ( #113, #121, #41 ) ;
#169 = EDGE_LOOP ( 'NONE', ( #162, #97, #120, #1 ) ) ;
#170 = FACE_OUTER_BOUND ( 'NONE', #68, .T. ) ;
#171 = LINE ( 'NONE', #128, #93 ) ;
#172 = CARTESIAN_POINT ( 'NONE',  ( 0.000000000000000000, 0.000000000000000000, 105.0000000000000142 ) ) ;
#173 = CARTESIAN_POINT ( 'NONE',  ( 0.000000000000000000, 0.000000000000000000, 5.000000000000000000 ) ) ;
#174 = CC_DESIGN_DATE_AND_TIME_ASSIGNMENT ( #87, #180, ( #293 ) ) ;
#175 = DIRECTION ( 'NONE',  ( -1.000000000000000000, 1.224646799147350742E-16, 0.000000000000000000 ) ) ;
#176 = CARTESIAN_POINT ( 'NONE',  ( -3.250000000000000444, 0.000000000000000000, 105.0000000000000142 ) ) ;
#177 = FACE_OUTER_BOUND ( 'NONE', #169, .T. ) ;
#178 = APPROVAL_STATUS ( 'not_yet_approved' ) ;
#179 = VECTOR ( 'NONE', #77, 1000.000000000000000 ) ;
#180 = DATE_TIME_ROLE ( 'classification_date' ) ;
#181 = SHAPE_DEFINITION_REPRESENTATION ( #275, #37 ) ;
#182 = PERSON_AND_ORGANIZATION ( #124, #115 ) ;
#183 = PERSON_AND_ORGANIZATION ( #124, #115 ) ;
#184 = CIRCLE ( 'NONE', #5, 6.000000000000000888 ) ;
#185 = ORIENTED_EDGE ( 'NONE', *, *, #186, .T. ) ;
#186 = EDGE_CURVE ( 'NONE', #253, #280, #132, .T. ) ;
#187 = EDGE_LOOP ( 'NONE', ( #28, #95, #70, #65 ) ) ;
#188 = EDGE_LOOP ( 'NONE', ( #209, #252 ) ) ;
#189 = CARTESIAN_POINT ( 'NONE',  ( -3.450000000000000178, 4.225031457058368824E-16, 4.999999999999998224 ) ) ;
#190 = EDGE_CURVE ( 'NONE', #229, #253, #171, .T. ) ;
#191 = DIRECTION ( 'NONE',  ( 1.000000000000000000, 0.000000000000000000, 0.000000000000000000 ) ) ;
#192 = DIRECTION ( 'NONE',  ( -0.000000000000000000, -0.000000000000000000, -1.000000000000000000 ) ) ;
#193 = LINE ( 'NONE', #287, #179 ) ;
#194 = EDGE_CURVE ( 'NONE', #305, #208, #193, .T. ) ;
#195 = CARTESIAN_POINT ( 'NONE',  ( 0.000000000000000000, 0.000000000000000000, 0.000000000000000000 ) ) ;
#196 = FACE_OUTER_BOUND ( 'NONE', #94, .T. ) ;
#197 = DIRECTION ( 'NONE',  ( 1.000000000000000000, 0.000000000000000000, 0.000000000000000000 ) ) ;
#198 = CARTESIAN_POINT ( 'NONE',  ( 0.000000000000000000, 0.000000000000000000, 105.0000000000000142 ) ) ;
#199 = CARTESIAN_POINT ( 'NONE',  ( 0.000000000000000000, 0.000000000000000000, 105.0000000000000142 ) ) ;
#200 = COORDINATED_UNIVERSAL_TIME_OFFSET ( 1, 0, .AHEAD. ) ;
#201 = APPROVAL_PERSON_ORGANIZATION ( #134, #295, #158 ) ;
#202 = APPROVAL_ROLE ( '' ) ;
#203 = ORIENTED_EDGE ( 'NONE', *, *, #48, .T. ) ;
#204 = PRODUCT_DEFINITION ( 'NEZNÁMÝ', '', #250, #226 ) ;
#205 = COORDINATED_UNIVERSAL_TIME_OFFSET ( 1, 0, .AHEAD. ) ;
#206 = EDGE_CURVE ( 'NONE', #69, #305, #13, .T. ) ;
#207 = ORIENTED_EDGE ( 'NONE', *, *, #190, .F. ) ;
#208 = VERTEX_POINT ( 'NONE', #35 ) ;
#209 = ORIENTED_EDGE ( 'NONE', *, *, #263, .T. ) ;
#210 = DIRECTION ( 'NONE',  ( 1.000000000000000000, 0.000000000000000000, 0.000000000000000000 ) ) ;
#211 = DIRECTION ( 'NONE',  ( -1.000000000000000000, 0.000000000000000000, 0.000000000000000000 ) ) ;
#212 = AXIS2_PLACEMENT_3D ( 'NONE', #217, #291, #175 ) ;
#213 = LINE ( 'NONE', #258, #255 ) ;
#214 = CC_DESIGN_PERSON_AND_ORGANIZATION_ASSIGNMENT ( #160, #251, ( #293 ) ) ;
#215 = DIRECTION ( 'NONE',  ( 1.000000000000000000, 0.000000000000000000, 0.000000000000000000 ) ) ;
#216 = ADVANCED_FACE ( 'NONE', ( #196 ), #294, .T. ) ;
#217 = CARTESIAN_POINT ( 'NONE',  ( -3.450000000000000178, 4.225031457058368824E-16, 5.199999999999996625 ) ) ;
#218 = DIRECTION ( 'NONE',  ( 0.000000000000000000, 0.000000000000000000, 1.000000000000000000 ) ) ;
#219 = AXIS2_PLACEMENT_3D ( 'NONE', #6, #51, #102 ) ;
#220 = DIRECTION ( 'NONE',  ( 1.000000000000000000, 0.000000000000000000, 0.000000000000000000 ) ) ;
#221 = CARTESIAN_POINT ( 'NONE',  ( -6.000000000000000888, 0.000000000000000000, 5.000000000000000000 ) ) ;
#222 = DIRECTION ( 'NONE',  ( 0.000000000000000000, 0.000000000000000000, 1.000000000000000000 ) ) ;
#223 = CIRCLE ( 'NONE', #212, 0.2000000000000000944 ) ;
#224 = CALENDAR_DATE ( 2022, 7, 7 ) ;
#225 = COORDINATED_UNIVERSAL_TIME_OFFSET ( 1, 0, .AHEAD. ) ;
#226 = DESIGN_CONTEXT ( 'detailed design', #40, 'design' ) ;
#227 = EDGE_CURVE ( 'NONE', #280, #138, #223, .T. ) ;
#228 = VERTEX_POINT ( 'NONE', #240 ) ;
#229 = VERTEX_POINT ( 'NONE', #109 ) ;
#230 = EDGE_LOOP ( 'NONE', ( #50, #27, #185, #141 ) ) ;
#231 = DIRECTION ( 'NONE',  ( 1.000000000000000000, 0.000000000000000000, 0.000000000000000000 ) ) ;
#232 = CARTESIAN_POINT ( 'NONE',  ( 0.000000000000000000, 0.000000000000000000, 0.000000000000000000 ) ) ;
#233 = CARTESIAN_POINT ( 'NONE',  ( 0.000000000000000000, 0.000000000000000000, 5.199999999999996625 ) ) ;
#234 = AXIS2_PLACEMENT_3D ( 'NONE', #233, #123, #210 ) ;
#235 = LOCAL_TIME ( 12, 9, 56.00000000000000000, #205 ) ;
#236 = CARTESIAN_POINT ( 'NONE',  ( 0.000000000000000000, 0.000000000000000000, 0.000000000000000000 ) ) ;
#237 = EDGE_CURVE ( 'NONE', #228, #208, #242, .T. ) ;
#238 = AXIS2_PLACEMENT_3D ( 'NONE', #232, #285, #284 ) ;
#239 = DIRECTION ( 'NONE',  ( -0.000000000000000000, -0.000000000000000000, -1.000000000000000000 ) ) ;
#240 = CARTESIAN_POINT ( 'NONE',  ( -6.000000000000000888, 0.000000000000000000, 0.000000000000000000 ) ) ;
#241 = CARTESIAN_POINT ( 'NONE',  ( 0.000000000000000000, 0.000000000000000000, 5.000000000000000000 ) ) ;
#242 = CIRCLE ( 'NONE', #137, 6.000000000000000888 ) ;
#243 = DIRECTION ( 'NONE',  ( 1.000000000000000000, 0.000000000000000000, 0.000000000000000000 ) ) ;
#244 = PERSON_AND_ORGANIZATION_ROLE ( 'creator' ) ;
#245 = EDGE_CURVE ( 'NONE', #229, #272, #292, .T. ) ;
#246 = MECHANICAL_CONTEXT ( 'NONE', #151, 'mechanical' ) ;
#247 = DIRECTION ( 'NONE',  ( 1.000000000000000000, 0.000000000000000000, 0.000000000000000000 ) ) ;
#248 = ORIENTED_EDGE ( 'NONE', *, *, #152, .T. ) ;
#249 = AXIS2_PLACEMENT_3D ( 'NONE', #126, #53, #215 ) ;
#250 = PRODUCT_DEFINITION_FORMATION_WITH_SPECIFIED_SOURCE ( 'LIBOVOLNÝ', '', #25, .NOT_KNOWN. ) ;
#251 = PERSON_AND_ORGANIZATION_ROLE ( 'classification_officer' ) ;
#252 = ORIENTED_EDGE ( 'NONE', *, *, #268, .T. ) ;
#253 = VERTEX_POINT ( 'NONE', #15 ) ;
#254 = CYLINDRICAL_SURFACE ( 'NONE', #219, 6.000000000000000888 ) ;
#255 = VECTOR ( 'NONE', #192, 1000.000000000000000 ) ;
#256 = ORIENTED_EDGE ( 'NONE', *, *, #86, .F. ) ;
#257 = DIRECTION ( 'NONE',  ( 0.000000000000000000, 0.000000000000000000, 1.000000000000000000 ) ) ;
#258 = CARTESIAN_POINT ( 'NONE',  ( -3.250000000000000444, 0.000000000000000000, 105.0000000000000142 ) ) ;
#259 = FACE_OUTER_BOUND ( 'NONE', #143, .T. ) ;
#260 = EDGE_CURVE ( 'NONE', #305, #69, #184, .T. ) ;
#261 = AXIS2_PLACEMENT_3D ( 'NONE', #236, #257, #231 ) ;
#262 = DIRECTION ( 'NONE',  ( -0.000000000000000000, -0.000000000000000000, -1.000000000000000000 ) ) ;
#263 = EDGE_CURVE ( 'NONE', #45, #138, #147, .T. ) ;
#264 =( NAMED_UNIT ( * ) PLANE_ANGLE_UNIT ( ) SI_UNIT ( $, .RADIAN. ) );
#265 = DIRECTION ( 'NONE',  ( 0.000000000000000000, 0.000000000000000000, 1.000000000000000000 ) ) ;
#266 = CC_DESIGN_PERSON_AND_ORGANIZATION_ASSIGNMENT ( #274, #66, ( #250 ) ) ;
#267 = CARTESIAN_POINT ( 'NONE',  ( 0.000000000000000000, 0.000000000000000000, 5.199999999999996625 ) ) ;
#268 = EDGE_CURVE ( 'NONE', #138, #45, #167, .T. ) ;
#269 = APPROVAL_STATUS ( 'not_yet_approved' ) ;
#270 = DATE_AND_TIME ( #110, #101 ) ;
#271 = PERSON_AND_ORGANIZATION ( #124, #115 ) ;
#272 = VERTEX_POINT ( 'NONE', #176 ) ;
#273 = ADVANCED_FACE ( 'NONE', ( #38, #81 ), #131, .T. ) ;
#274 = PERSON_AND_ORGANIZATION ( #124, #115 ) ;
#275 = PRODUCT_DEFINITION_SHAPE ( 'NONE', 'NONE',  #204 ) ;
#276 = ORIENTED_EDGE ( 'NONE', *, *, #296, .F. ) ;
#277 = CLOSED_SHELL ( 'NONE', ( #289, #164, #12, #71, #273, #60, #216, #303, #103 ) ) ;
#278 = ORIENTED_EDGE ( 'NONE', *, *, #48, .F. ) ;
#279 = CC_DESIGN_DATE_AND_TIME_ASSIGNMENT ( #89, #116, ( #204 ) ) ;
#280 = VERTEX_POINT ( 'NONE', #39 ) ;
#281 = ORIENTED_EDGE ( 'NONE', *, *, #92, .T. ) ;
#282 = ORIENTED_EDGE ( 'NONE', *, *, #194, .T. ) ;
#283 = CC_DESIGN_APPROVAL ( #8, ( #250 ) ) ;
#284 = DIRECTION ( 'NONE',  ( 1.000000000000000000, 0.000000000000000000, -0.000000000000000000 ) ) ;
#285 = DIRECTION ( 'NONE',  ( 0.000000000000000000, 0.000000000000000000, 1.000000000000000000 ) ) ;
#286 = MANIFOLD_SOLID_BREP ( 'Zaoblit1', #277 ) ;
#287 = CARTESIAN_POINT ( 'NONE',  ( 6.000000000000000888, 7.347880794884120722E-16, 5.000000000000000000 ) ) ;
#288 = VECTOR ( 'NONE', #239, 1000.000000000000000 ) ;
#289 = ADVANCED_FACE ( 'NONE', ( #177 ), #32, .F. ) ;
#290 = DIRECTION ( 'NONE',  ( 1.000000000000000000, 0.000000000000000000, -0.000000000000000000 ) ) ;
#291 = DIRECTION ( 'NONE',  ( 1.224646799147353207E-16, 1.000000000000000000, -0.000000000000000000 ) ) ;
#292 = CIRCLE ( 'NONE', #79, 3.250000000000000444 ) ;
#293 = SECURITY_CLASSIFICATION ( '', '', #139 ) ;
#294 = CYLINDRICAL_SURFACE ( 'NONE', #72, 3.250000000000000444 ) ;
#295 = APPROVAL ( #84, 'NEURÈENÝ' ) ;
#296 = EDGE_CURVE ( 'NONE', #69, #228, #106, .T. ) ;
#297 = CARTESIAN_POINT ( 'NONE',  ( 0.000000000000000000, 0.000000000000000000, 5.000000000000000000 ) ) ;
#298 = CARTESIAN_POINT ( 'NONE',  ( 0.000000000000000000, 0.000000000000000000, 0.000000000000000000 ) ) ;
#299 = UNCERTAINTY_MEASURE_WITH_UNIT (LENGTH_MEASURE( 1.000000000000000082E-05 ), #154, 'distance_accuracy_value', 'NONE');
#300 = DIRECTION ( 'NONE',  ( 0.000000000000000000, 0.000000000000000000, 1.000000000000000000 ) ) ;
#301 = COORDINATED_UNIVERSAL_TIME_OFFSET ( 1, 0, .AHEAD. ) ;
#302 = AXIS2_PLACEMENT_3D ( 'NONE', #298, #222, #247 ) ;
#303 = ADVANCED_FACE ( 'NONE', ( #17 ), #157, .T. ) ;
#304 = DATE_AND_TIME ( #112, #127 ) ;
#305 = VERTEX_POINT ( 'NONE', #80 ) ;
#306 = ORIENTED_EDGE ( 'NONE', *, *, #194, .F. ) ;
#307 = PRODUCT_RELATED_PRODUCT_CATEGORY ( 'detail', '', ( #25 ) ) ;
ENDSEC;
END-ISO-10303-21;
