ISO-10303-21;
HEADER;
FILE_DESCRIPTION (( 'STEP AP203' ),
    '1' );
FILE_NAME ('030b.STEP',
    '2023-02-12T10:27:26',
    ( '' ),
    ( '' ),
    'SwSTEP 2.0',
    'SolidWorks 2019',
    '' );
FILE_SCHEMA (( 'CONFIG_CONTROL_DESIGN' ));
ENDSEC;

DATA;
#1 = MECHANICAL_CONTEXT ( 'NONE', #64, 'mechanical' ) ;
#2 = DIRECTION ( 'NONE',  ( 1.000000000000000000, 0.000000000000000000, 0.000000000000000000 ) ) ;
#3 = PERSON_AND_ORGANIZATION ( #176, #115 ) ;
#4 = CIRCLE ( 'NONE', #31, 20.00000000000000000 ) ;
#5 = ADVANCED_FACE ( 'NONE', ( #211 ), #67, .F. ) ;
#6 = VERTEX_POINT ( 'NONE', #243 ) ;
#7 = CARTESIAN_POINT ( 'NONE',  ( 0.000000000000000000, 0.000000000000000000, 0.000000000000000000 ) ) ;
#8 = EDGE_LOOP ( 'NONE', ( #146, #29, #11, #224 ) ) ;
#9 = SECURITY_CLASSIFICATION ( '', '', #140 ) ;
#10 = ORIENTED_EDGE ( 'NONE', *, *, #233, .F. ) ;
#11 = ORIENTED_EDGE ( 'NONE', *, *, #254, .T. ) ;
#12 = AXIS2_PLACEMENT_3D ( 'NONE', #209, #32, #170 ) ;
#13 = EDGE_CURVE ( 'NONE', #172, #246, #245, .T. ) ;
#14 = CARTESIAN_POINT ( 'NONE',  ( 20.00000000000000000, 2.449293598294706513E-15, 0.000000000000000000 ) ) ;
#15 = DIRECTION ( 'NONE',  ( 1.000000000000000000, 0.000000000000000000, 0.000000000000000000 ) ) ;
#16 = CARTESIAN_POINT ( 'NONE',  ( 0.000000000000000000, 0.000000000000000000, 10.00000000000000000 ) ) ;
#17 =( NAMED_UNIT ( * ) PLANE_ANGLE_UNIT ( ) SI_UNIT ( $, .RADIAN. ) );
#18 = PERSON_AND_ORGANIZATION_ROLE ( 'creator' ) ;
#19 = EDGE_LOOP ( 'NONE', ( #62, #10, #108, #147 ) ) ;
#20 = CARTESIAN_POINT ( 'NONE',  ( 0.000000000000000000, 0.000000000000000000, 0.000000000000000000 ) ) ;
#21 = CC_DESIGN_SECURITY_CLASSIFICATION ( #9, ( #248 ) ) ;
#22 = APPROVAL_ROLE ( '' ) ;
#23 = CALENDAR_DATE ( 2023, 12, 2 ) ;
#24 = AXIS2_PLACEMENT_3D ( 'NONE', #197, #250, #213 ) ;
#25 = VERTEX_POINT ( 'NONE', #171 ) ;
#26 = AXIS2_PLACEMENT_3D ( 'NONE', #112, #34, #90 ) ;
#27 = ORIENTED_EDGE ( 'NONE', *, *, #107, .T. ) ;
#28 = CYLINDRICAL_SURFACE ( 'NONE', #164, 20.00000000000000000 ) ;
#29 = ORIENTED_EDGE ( 'NONE', *, *, #103, .T. ) ;
#30 = VECTOR ( 'NONE', #36, 1000.000000000000000 ) ;
#31 = AXIS2_PLACEMENT_3D ( 'NONE', #253, #89, #175 ) ;
#32 = DIRECTION ( 'NONE',  ( 0.000000000000000000, 0.000000000000000000, 1.000000000000000000 ) ) ;
#33 = ADVANCED_FACE ( 'NONE', ( #65 ), #28, .T. ) ;
#34 = DIRECTION ( 'NONE',  ( -0.000000000000000000, -0.000000000000000000, -1.000000000000000000 ) ) ;
#35 = VECTOR ( 'NONE', #249, 1000.000000000000000 ) ;
#36 = DIRECTION ( 'NONE',  ( -0.000000000000000000, -0.000000000000000000, -1.000000000000000000 ) ) ;
#37 = EDGE_CURVE ( 'NONE', #172, #25, #191, .T. ) ;
#38 = DIRECTION ( 'NONE',  ( 1.000000000000000000, 0.000000000000000000, -0.000000000000000000 ) ) ;
#39 = APPROVAL_DATE_TIME ( #186, #173 ) ;
#40 = DATE_AND_TIME ( #23, #141 ) ;
#41 = AXIS2_PLACEMENT_3D ( 'NONE', #109, #123, #83 ) ;
#42 = ADVANCED_FACE ( 'NONE', ( #128 ), #240, .T. ) ;
#43 = COORDINATED_UNIVERSAL_TIME_OFFSET ( 1, 0, .AHEAD. ) ;
#44 = ORIENTED_EDGE ( 'NONE', *, *, #194, .F. ) ;
#45 = VERTEX_POINT ( 'NONE', #121 ) ;
#46 = MANIFOLD_SOLID_BREP ( 'Pøidat vysunutím3', #214 ) ;
#47 = EDGE_LOOP ( 'NONE', ( #207, #27 ) ) ;
#48 = EDGE_LOOP ( 'NONE', ( #192, #225, #204, #102 ) ) ;
#49 = CARTESIAN_POINT ( 'NONE',  ( 0.000000000000000000, 0.000000000000000000, 10.00000000000000000 ) ) ;
#50 = CIRCLE ( 'NONE', #68, 16.00000000000000000 ) ;
#51 = AXIS2_PLACEMENT_3D ( 'NONE', #16, #198, #15 ) ;
#52 = EDGE_CURVE ( 'NONE', #188, #45, #105, .T. ) ;
#53 = FACE_OUTER_BOUND ( 'NONE', #47, .T. ) ;
#54 = PLANE ( 'NONE',  #145 ) ;
#55 = CC_DESIGN_APPROVAL ( #59, ( #218 ) ) ;
#56 = CARTESIAN_POINT ( 'NONE',  ( 0.000000000000000000, 0.000000000000000000, 0.000000000000000000 ) ) ;
#57 = FACE_OUTER_BOUND ( 'NONE', #88, .T. ) ;
#58 = SHAPE_DEFINITION_REPRESENTATION ( #120, #76 ) ;
#59 = APPROVAL ( #235, 'NEURÈENÝ' ) ;
#60 = APPROVAL_STATUS ( 'not_yet_approved' ) ;
#61 = CARTESIAN_POINT ( 'NONE',  ( -20.00000000000000000, 0.000000000000000000, 10.00000000000000000 ) ) ;
#62 = ORIENTED_EDGE ( 'NONE', *, *, #103, .F. ) ;
#63 = VERTEX_POINT ( 'NONE', #189 ) ;
#64 = APPLICATION_CONTEXT ( 'configuration controlled 3d designs of mechanical parts and assemblies' ) ;
#65 = FACE_OUTER_BOUND ( 'NONE', #19, .T. ) ;
#66 = CC_DESIGN_PERSON_AND_ORGANIZATION_ASSIGNMENT ( #116, #78, ( #248 ) ) ;
#67 = PLANE ( 'NONE',  #12 ) ;
#68 = AXIS2_PLACEMENT_3D ( 'NONE', #151, #70, #133 ) ;
#69 = DIRECTION ( 'NONE',  ( 1.000000000000000000, 0.000000000000000000, 0.000000000000000000 ) ) ;
#70 = DIRECTION ( 'NONE',  ( 0.000000000000000000, 0.000000000000000000, 1.000000000000000000 ) ) ;
#71 = FACE_OUTER_BOUND ( 'NONE', #48, .T. ) ;
#72 = CYLINDRICAL_SURFACE ( 'NONE', #118, 16.00000000000000000 ) ;
#73 = CARTESIAN_POINT ( 'NONE',  ( 0.000000000000000000, 0.000000000000000000, 99.99999999999998579 ) ) ;
#74 = EDGE_CURVE ( 'NONE', #45, #85, #135, .T. ) ;
#75 = PERSON_AND_ORGANIZATION ( #176, #115 ) ;
#76 = ADVANCED_BREP_SHAPE_REPRESENTATION ( '030b', ( #46, #242 ), #187 ) ;
#77 = PERSON_AND_ORGANIZATION ( #176, #115 ) ;
#78 = PERSON_AND_ORGANIZATION_ROLE ( 'design_supplier' ) ;
#79 = EDGE_CURVE ( 'NONE', #246, #63, #251, .T. ) ;
#80 = PERSON_AND_ORGANIZATION ( #176, #115 ) ;
#81 = DATE_AND_TIME ( #217, #101 ) ;
#82 = EDGE_LOOP ( 'NONE', ( #193, #208 ) ) ;
#83 = DIRECTION ( 'NONE',  ( -1.000000000000000000, 0.000000000000000000, 0.000000000000000000 ) ) ;
#84 = AXIS2_PLACEMENT_3D ( 'NONE', #104, #166, #227 ) ;
#85 = VERTEX_POINT ( 'NONE', #14 ) ;
#86 = LOCAL_TIME ( 11, 27, 26.00000000000000000, #200 ) ;
#87 = DIRECTION ( 'NONE',  ( -0.000000000000000000, -0.000000000000000000, -1.000000000000000000 ) ) ;
#88 = EDGE_LOOP ( 'NONE', ( #44, #210, #144, #238 ) ) ;
#89 = DIRECTION ( 'NONE',  ( 0.000000000000000000, 0.000000000000000000, 1.000000000000000000 ) ) ;
#90 = DIRECTION ( 'NONE',  ( -1.000000000000000000, 0.000000000000000000, 0.000000000000000000 ) ) ;
#91 = DIRECTION ( 'NONE',  ( 1.000000000000000000, 0.000000000000000000, 0.000000000000000000 ) ) ;
#92 = DIRECTION ( 'NONE',  ( 0.000000000000000000, 0.000000000000000000, 1.000000000000000000 ) ) ;
#93 =( NAMED_UNIT ( * ) SI_UNIT ( $, .STERADIAN. ) SOLID_ANGLE_UNIT ( ) );
#94 = CC_DESIGN_DATE_AND_TIME_ASSIGNMENT ( #81, #139, ( #218 ) ) ;
#95 = PERSON_AND_ORGANIZATION ( #176, #115 ) ;
#96 = PERSON_AND_ORGANIZATION_ROLE ( 'classification_officer' ) ;
#97 = AXIS2_PLACEMENT_3D ( 'NONE', #56, #177, #216 ) ;
#98 = CALENDAR_DATE ( 2023, 12, 2 ) ;
#99 = PERSON_AND_ORGANIZATION ( #176, #115 ) ;
#100 = VECTOR ( 'NONE', #87, 1000.000000000000000 ) ;
#101 = LOCAL_TIME ( 11, 27, 26.00000000000000000, #158 ) ;
#102 = ORIENTED_EDGE ( 'NONE', *, *, #13, .F. ) ;
#103 = EDGE_CURVE ( 'NONE', #6, #85, #195, .T. ) ;
#104 = CARTESIAN_POINT ( 'NONE',  ( 0.000000000000000000, 0.000000000000000000, 99.99999999999998579 ) ) ;
#105 = LINE ( 'NONE', #61, #159 ) ;
#106 = AXIS2_PLACEMENT_3D ( 'NONE', #7, #241, #69 ) ;
#107 = EDGE_CURVE ( 'NONE', #25, #172, #174, .T. ) ;
#108 = ORIENTED_EDGE ( 'NONE', *, *, #52, .T. ) ;
#109 = CARTESIAN_POINT ( 'NONE',  ( 0.000000000000000000, 0.000000000000000000, 10.00000000000000000 ) ) ;
#110 = CARTESIAN_POINT ( 'NONE',  ( 0.000000000000000000, 0.000000000000000000, 99.99999999999998579 ) ) ;
#111 = DIRECTION ( 'NONE',  ( 1.000000000000000000, 0.000000000000000000, -0.000000000000000000 ) ) ;
#112 = CARTESIAN_POINT ( 'NONE',  ( 0.000000000000000000, 0.000000000000000000, 99.99999999999998579 ) ) ;
#113 = CARTESIAN_POINT ( 'NONE',  ( 20.00000000000000000, 2.449293598294706513E-15, 10.00000000000000000 ) ) ;
#114 = ADVANCED_FACE ( 'NONE', ( #53 ), #157, .T. ) ;
#115 = ORGANIZATION ( 'NEURÈENÝ', 'NEURÈENÝ', '' ) ;
#116 = PERSON_AND_ORGANIZATION ( #176, #115 ) ;
#117 = EDGE_LOOP ( 'NONE', ( #190, #126 ) ) ;
#118 = AXIS2_PLACEMENT_3D ( 'NONE', #110, #153, #196 ) ;
#119 = PERSON_AND_ORGANIZATION_ROLE ( 'design_owner' ) ;
#120 = PRODUCT_DEFINITION_SHAPE ( 'NONE', 'NONE',  #218 ) ;
#121 = CARTESIAN_POINT ( 'NONE',  ( -20.00000000000000000, 0.000000000000000000, 0.000000000000000000 ) ) ;
#122 = EDGE_CURVE ( 'NONE', #63, #246, #50, .T. ) ;
#123 = DIRECTION ( 'NONE',  ( -0.000000000000000000, -0.000000000000000000, -1.000000000000000000 ) ) ;
#124 = ORIENTED_EDGE ( 'NONE', *, *, #122, .F. ) ;
#125 = CC_DESIGN_PERSON_AND_ORGANIZATION_ASSIGNMENT ( #3, #18, ( #218 ) ) ;
#126 = ORIENTED_EDGE ( 'NONE', *, *, #165, .T. ) ;
#127 = AXIS2_PLACEMENT_3D ( 'NONE', #73, #215, #111 ) ;
#128 = FACE_OUTER_BOUND ( 'NONE', #8, .T. ) ;
#129 = FACE_OUTER_BOUND ( 'NONE', #117, .T. ) ;
#130 = CARTESIAN_POINT ( 'NONE',  ( 0.000000000000000000, 0.000000000000000000, 10.00000000000000000 ) ) ;
#131 = CARTESIAN_POINT ( 'NONE',  ( 16.00000000000000000, 1.959434878635764737E-15, 99.99999999999998579 ) ) ;
#132 = CC_DESIGN_PERSON_AND_ORGANIZATION_ASSIGNMENT ( #99, #119, ( #202 ) ) ;
#133 = DIRECTION ( 'NONE',  ( 1.000000000000000000, 0.000000000000000000, 0.000000000000000000 ) ) ;
#134 = APPROVAL_DATE_TIME ( #219, #59 ) ;
#135 = CIRCLE ( 'NONE', #106, 20.00000000000000000 ) ;
#136 = APPROVAL_PERSON_ORGANIZATION ( #236, #173, #221 ) ;
#137 = LOCAL_TIME ( 11, 27, 26.00000000000000000, #43 ) ;
#138 = APPROVAL_STATUS ( 'not_yet_approved' ) ;
#139 = DATE_TIME_ROLE ( 'creation_date' ) ;
#140 = SECURITY_CLASSIFICATION_LEVEL ( 'unclassified' ) ;
#141 = LOCAL_TIME ( 11, 27, 26.00000000000000000, #237 ) ;
#142 = APPROVAL_ROLE ( '' ) ;
#143 = CC_DESIGN_PERSON_AND_ORGANIZATION_ASSIGNMENT ( #80, #162, ( #248 ) ) ;
#144 = ORIENTED_EDGE ( 'NONE', *, *, #13, .T. ) ;
#145 = AXIS2_PLACEMENT_3D ( 'NONE', #130, #92, #38 ) ;
#146 = ORIENTED_EDGE ( 'NONE', *, *, #165, .F. ) ;
#147 = ORIENTED_EDGE ( 'NONE', *, *, #74, .T. ) ;
#148 = EDGE_LOOP ( 'NONE', ( #163, #124 ) ) ;
#149 = DIRECTION ( 'NONE',  ( -1.000000000000000000, 0.000000000000000000, 0.000000000000000000 ) ) ;
#150 = PRODUCT_RELATED_PRODUCT_CATEGORY ( 'detail', '', ( #202 ) ) ;
#151 = CARTESIAN_POINT ( 'NONE',  ( 0.000000000000000000, 0.000000000000000000, 10.00000000000000000 ) ) ;
#152 = DESIGN_CONTEXT ( 'detailed design', #167, 'design' ) ;
#153 = DIRECTION ( 'NONE',  ( -0.000000000000000000, -0.000000000000000000, -1.000000000000000000 ) ) ;
#154 = CARTESIAN_POINT ( 'NONE',  ( 0.000000000000000000, 0.000000000000000000, 99.99999999999998579 ) ) ;
#155 = LOCAL_TIME ( 11, 27, 26.00000000000000000, #182 ) ;
#156 = DIRECTION ( 'NONE',  ( 0.000000000000000000, 0.000000000000000000, 1.000000000000000000 ) ) ;
#157 = PLANE ( 'NONE',  #127 ) ;
#158 = COORDINATED_UNIVERSAL_TIME_OFFSET ( 1, 0, .AHEAD. ) ;
#159 = VECTOR ( 'NONE', #222, 1000.000000000000000 ) ;
#160 = CALENDAR_DATE ( 2023, 12, 2 ) ;
#161 = APPROVAL_DATE_TIME ( #40, #201 ) ;
#162 = PERSON_AND_ORGANIZATION_ROLE ( 'creator' ) ;
#163 = ORIENTED_EDGE ( 'NONE', *, *, #79, .F. ) ;
#164 = AXIS2_PLACEMENT_3D ( 'NONE', #49, #168, #149 ) ;
#165 = EDGE_CURVE ( 'NONE', #6, #188, #205, .T. ) ;
#166 = DIRECTION ( 'NONE',  ( 0.000000000000000000, 0.000000000000000000, 1.000000000000000000 ) ) ;
#167 = APPLICATION_CONTEXT ( 'configuration controlled 3d designs of mechanical parts and assemblies' ) ;
#168 = DIRECTION ( 'NONE',  ( -0.000000000000000000, -0.000000000000000000, -1.000000000000000000 ) ) ;
#169 = APPROVAL_PERSON_ORGANIZATION ( #77, #59, #142 ) ;
#170 = DIRECTION ( 'NONE',  ( 1.000000000000000000, 0.000000000000000000, -0.000000000000000000 ) ) ;
#171 = CARTESIAN_POINT ( 'NONE',  ( 16.00000000000000000, 1.959434878635764737E-15, 99.99999999999998579 ) ) ;
#172 = VERTEX_POINT ( 'NONE', #178 ) ;
#173 = APPROVAL ( #138, 'NEURÈENÝ' ) ;
#174 = CIRCLE ( 'NONE', #179, 16.00000000000000000 ) ;
#175 = DIRECTION ( 'NONE',  ( 1.000000000000000000, 0.000000000000000000, 0.000000000000000000 ) ) ;
#176 = PERSON ( 'NEURÈENÝ', 'NEURÈENÝ', 'NEURÈENÝ', ('NEURÈENÝ'), ('NEURÈENÝ'), ('NEURÈENÝ') ) ;
#177 = DIRECTION ( 'NONE',  ( 0.000000000000000000, 0.000000000000000000, 1.000000000000000000 ) ) ;
#178 = CARTESIAN_POINT ( 'NONE',  ( -16.00000000000000000, 0.000000000000000000, 99.99999999999998579 ) ) ;
#179 = AXIS2_PLACEMENT_3D ( 'NONE', #154, #156, #91 ) ;
#180 = CC_DESIGN_APPROVAL ( #201, ( #9 ) ) ;
#181 = CARTESIAN_POINT ( 'NONE',  ( -20.00000000000000000, 0.000000000000000000, 10.00000000000000000 ) ) ;
#182 = COORDINATED_UNIVERSAL_TIME_OFFSET ( 1, 0, .AHEAD. ) ;
#183 = ADVANCED_FACE ( 'NONE', ( #228, #129 ), #54, .T. ) ;
#184 = APPLICATION_PROTOCOL_DEFINITION ( 'international standard', 'config_control_design', 1994, #64 ) ;
#185 = ADVANCED_FACE ( 'NONE', ( #57 ), #212, .T. ) ;
#186 = DATE_AND_TIME ( #98, #86 ) ;
#187 =( GEOMETRIC_REPRESENTATION_CONTEXT ( 3 ) GLOBAL_UNCERTAINTY_ASSIGNED_CONTEXT ( ( #232 ) ) GLOBAL_UNIT_ASSIGNED_CONTEXT ( ( #199, #17, #93 ) ) REPRESENTATION_CONTEXT ( 'NONE', 'WORKASPACE' ) );
#188 = VERTEX_POINT ( 'NONE', #181 ) ;
#189 = CARTESIAN_POINT ( 'NONE',  ( 16.00000000000000000, 1.959434878635764737E-15, 10.00000000000000000 ) ) ;
#190 = ORIENTED_EDGE ( 'NONE', *, *, #233, .T. ) ;
#191 = CIRCLE ( 'NONE', #84, 16.00000000000000000 ) ;
#192 = ORIENTED_EDGE ( 'NONE', *, *, #107, .F. ) ;
#193 = ORIENTED_EDGE ( 'NONE', *, *, #74, .F. ) ;
#194 = EDGE_CURVE ( 'NONE', #25, #63, #231, .T. ) ;
#195 = LINE ( 'NONE', #113, #30 ) ;
#196 = DIRECTION ( 'NONE',  ( -1.000000000000000000, 0.000000000000000000, 0.000000000000000000 ) ) ;
#197 = CARTESIAN_POINT ( 'NONE',  ( 0.000000000000000000, 0.000000000000000000, 10.00000000000000000 ) ) ;
#198 = DIRECTION ( 'NONE',  ( 0.000000000000000000, 0.000000000000000000, 1.000000000000000000 ) ) ;
#199 =( LENGTH_UNIT ( ) NAMED_UNIT ( * ) SI_UNIT ( .MILLI., .METRE. ) );
#200 = COORDINATED_UNIVERSAL_TIME_OFFSET ( 1, 0, .AHEAD. ) ;
#201 = APPROVAL ( #60, 'NEURÈENÝ' ) ;
#202 = PRODUCT ( '030b', '030b', '', ( #1 ) ) ;
#203 = DIRECTION ( 'NONE',  ( 0.000000000000000000, 0.000000000000000000, 1.000000000000000000 ) ) ;
#204 = ORIENTED_EDGE ( 'NONE', *, *, #122, .T. ) ;
#205 = CIRCLE ( 'NONE', #51, 20.00000000000000000 ) ;
#206 = DATE_AND_TIME ( #255, #155 ) ;
#207 = ORIENTED_EDGE ( 'NONE', *, *, #37, .T. ) ;
#208 = ORIENTED_EDGE ( 'NONE', *, *, #254, .F. ) ;
#209 = CARTESIAN_POINT ( 'NONE',  ( 0.000000000000000000, 0.000000000000000000, 0.000000000000000000 ) ) ;
#210 = ORIENTED_EDGE ( 'NONE', *, *, #37, .F. ) ;
#211 = FACE_OUTER_BOUND ( 'NONE', #82, .T. ) ;
#212 = CYLINDRICAL_SURFACE ( 'NONE', #26, 16.00000000000000000 ) ;
#213 = DIRECTION ( 'NONE',  ( 1.000000000000000000, 0.000000000000000000, 0.000000000000000000 ) ) ;
#214 = CLOSED_SHELL ( 'NONE', ( #244, #42, #33, #183, #5, #185, #114 ) ) ;
#215 = DIRECTION ( 'NONE',  ( 0.000000000000000000, 0.000000000000000000, 1.000000000000000000 ) ) ;
#216 = DIRECTION ( 'NONE',  ( 1.000000000000000000, 0.000000000000000000, 0.000000000000000000 ) ) ;
#217 = CALENDAR_DATE ( 2023, 12, 2 ) ;
#218 = PRODUCT_DEFINITION ( 'NEZNÁMÝ', '', #248, #152 ) ;
#219 = DATE_AND_TIME ( #160, #137 ) ;
#220 = DATE_TIME_ROLE ( 'classification_date' ) ;
#221 = APPROVAL_ROLE ( '' ) ;
#222 = DIRECTION ( 'NONE',  ( -0.000000000000000000, -0.000000000000000000, -1.000000000000000000 ) ) ;
#223 = CC_DESIGN_PERSON_AND_ORGANIZATION_ASSIGNMENT ( #95, #96, ( #9 ) ) ;
#224 = ORIENTED_EDGE ( 'NONE', *, *, #52, .F. ) ;
#225 = ORIENTED_EDGE ( 'NONE', *, *, #194, .T. ) ;
#226 = CARTESIAN_POINT ( 'NONE',  ( -16.00000000000000000, 0.000000000000000000, 99.99999999999998579 ) ) ;
#227 = DIRECTION ( 'NONE',  ( 1.000000000000000000, 0.000000000000000000, 0.000000000000000000 ) ) ;
#228 = FACE_BOUND ( 'NONE', #148, .T. ) ;
#229 = CC_DESIGN_APPROVAL ( #173, ( #248 ) ) ;
#230 = CARTESIAN_POINT ( 'NONE',  ( -16.00000000000000000, 0.000000000000000000, 10.00000000000000000 ) ) ;
#231 = LINE ( 'NONE', #131, #35 ) ;
#232 = UNCERTAINTY_MEASURE_WITH_UNIT (LENGTH_MEASURE( 1.000000000000000082E-05 ), #199, 'distance_accuracy_value', 'NONE');
#233 = EDGE_CURVE ( 'NONE', #188, #6, #4, .T. ) ;
#234 = APPLICATION_PROTOCOL_DEFINITION ( 'international standard', 'config_control_design', 1994, #167 ) ;
#235 = APPROVAL_STATUS ( 'not_yet_approved' ) ;
#236 = PERSON_AND_ORGANIZATION ( #176, #115 ) ;
#237 = COORDINATED_UNIVERSAL_TIME_OFFSET ( 1, 0, .AHEAD. ) ;
#238 = ORIENTED_EDGE ( 'NONE', *, *, #79, .T. ) ;
#239 = CC_DESIGN_DATE_AND_TIME_ASSIGNMENT ( #206, #220, ( #9 ) ) ;
#240 = CYLINDRICAL_SURFACE ( 'NONE', #41, 20.00000000000000000 ) ;
#241 = DIRECTION ( 'NONE',  ( 0.000000000000000000, 0.000000000000000000, 1.000000000000000000 ) ) ;
#242 = AXIS2_PLACEMENT_3D ( 'NONE', #20, #203, #2 ) ;
#243 = CARTESIAN_POINT ( 'NONE',  ( 20.00000000000000000, 2.449293598294706513E-15, 10.00000000000000000 ) ) ;
#244 = ADVANCED_FACE ( 'NONE', ( #71 ), #72, .T. ) ;
#245 = LINE ( 'NONE', #226, #100 ) ;
#246 = VERTEX_POINT ( 'NONE', #230 ) ;
#247 = CIRCLE ( 'NONE', #97, 20.00000000000000000 ) ;
#248 = PRODUCT_DEFINITION_FORMATION_WITH_SPECIFIED_SOURCE ( 'LIBOVOLNÝ', '', #202, .NOT_KNOWN. ) ;
#249 = DIRECTION ( 'NONE',  ( -0.000000000000000000, -0.000000000000000000, -1.000000000000000000 ) ) ;
#250 = DIRECTION ( 'NONE',  ( 0.000000000000000000, 0.000000000000000000, 1.000000000000000000 ) ) ;
#251 = CIRCLE ( 'NONE', #24, 16.00000000000000000 ) ;
#252 = APPROVAL_PERSON_ORGANIZATION ( #75, #201, #22 ) ;
#253 = CARTESIAN_POINT ( 'NONE',  ( 0.000000000000000000, 0.000000000000000000, 10.00000000000000000 ) ) ;
#254 = EDGE_CURVE ( 'NONE', #85, #45, #247, .T. ) ;
#255 = CALENDAR_DATE ( 2023, 12, 2 ) ;
ENDSEC;
END-ISO-10303-21;
