ISO-10303-21;
HEADER;
FILE_DESCRIPTION (( 'STEP AP203' ),
    '1' );
FILE_NAME ('5fed.STEP',
    '2022-07-07T10:12:50',
    ( '' ),
    ( '' ),
    'SwSTEP 2.0',
    'SolidWorks 2019',
    '' );
FILE_SCHEMA (( 'CONFIG_CONTROL_DESIGN' ));
ENDSEC;

DATA;
#1 = CARTESIAN_POINT ( 'NONE',  ( 6.000000000000000888, 7.347880794884120722E-16, 0.000000000000000000 ) ) ;
#2 = PERSON ( 'NEURÈENÝ', 'NEURÈENÝ', 'NEURÈENÝ', ('NEURÈENÝ'), ('NEURÈENÝ'), ('NEURÈENÝ') ) ;
#3 = CARTESIAN_POINT ( 'NONE',  ( -6.000000000000000888, 0.000000000000000000, 5.000000000000000000 ) ) ;
#4 = ADVANCED_FACE ( 'NONE', ( #57 ), #247, .T. ) ;
#5 = DIRECTION ( 'NONE',  ( -0.000000000000000000, -0.000000000000000000, -1.000000000000000000 ) ) ;
#6 = CC_DESIGN_PERSON_AND_ORGANIZATION_ASSIGNMENT ( #93, #184, ( #228 ) ) ;
#7 = AXIS2_PLACEMENT_3D ( 'NONE', #202, #36, #63 ) ;
#8 = DIRECTION ( 'NONE',  ( -0.000000000000000000, -0.000000000000000000, -1.000000000000000000 ) ) ;
#9 = ORIENTED_EDGE ( 'NONE', *, *, #180, .T. ) ;
#10 = CIRCLE ( 'NONE', #122, 6.000000000000000888 ) ;
#11 = CC_DESIGN_PERSON_AND_ORGANIZATION_ASSIGNMENT ( #297, #206, ( #60 ) ) ;
#12 = DIRECTION ( 'NONE',  ( 1.000000000000000000, 0.000000000000000000, -0.000000000000000000 ) ) ;
#13 = VERTEX_POINT ( 'NONE', #269 ) ;
#14 = VERTEX_POINT ( 'NONE', #243 ) ;
#15 = APPROVAL ( #140, 'NEURÈENÝ' ) ;
#16 = ADVANCED_BREP_SHAPE_REPRESENTATION ( '5fed', ( #201, #23 ), #298 ) ;
#17 = AXIS2_PLACEMENT_3D ( 'NONE', #283, #5, #147 ) ;
#18 = DATE_AND_TIME ( #276, #31 ) ;
#19 = CARTESIAN_POINT ( 'NONE',  ( 0.000000000000000000, 0.000000000000000000, 0.000000000000000000 ) ) ;
#20 = APPLICATION_CONTEXT ( 'configuration controlled 3d designs of mechanical parts and assemblies' ) ;
#21 = CARTESIAN_POINT ( 'NONE',  ( 0.000000000000000000, 0.000000000000000000, 5.000000000000000000 ) ) ;
#22 = APPROVAL_ROLE ( '' ) ;
#23 = AXIS2_PLACEMENT_3D ( 'NONE', #120, #281, #75 ) ;
#24 = DIRECTION ( 'NONE',  ( 1.000000000000000000, 0.000000000000000000, 0.000000000000000000 ) ) ;
#25 = CARTESIAN_POINT ( 'NONE',  ( 0.000000000000000000, 0.000000000000000000, 635.0000000000000000 ) ) ;
#26 = DIRECTION ( 'NONE',  ( -0.000000000000000000, -0.000000000000000000, -1.000000000000000000 ) ) ;
#27 = EDGE_CURVE ( 'NONE', #199, #110, #10, .T. ) ;
#28 = AXIS2_PLACEMENT_3D ( 'NONE', #146, #280, #73 ) ;
#29 = EDGE_CURVE ( 'NONE', #14, #129, #132, .T. ) ;
#30 = AXIS2_PLACEMENT_3D ( 'NONE', #48, #231, #142 ) ;
#31 = LOCAL_TIME ( 12, 12, 50.00000000000000000, #114 ) ;
#32 = CYLINDRICAL_SURFACE ( 'NONE', #65, 6.000000000000000888 ) ;
#33 = ORIENTED_EDGE ( 'NONE', *, *, #182, .T. ) ;
#34 = VERTEX_POINT ( 'NONE', #266 ) ;
#35 = ADVANCED_FACE ( 'NONE', ( #246 ), #158, .F. ) ;
#36 = DIRECTION ( 'NONE',  ( 0.000000000000000000, 0.000000000000000000, 1.000000000000000000 ) ) ;
#37 = PRODUCT ( '5fed', '5fed', '', ( #196 ) ) ;
#38 = ORIENTED_EDGE ( 'NONE', *, *, #27, .F. ) ;
#39 = VECTOR ( 'NONE', #99, 1000.000000000000000 ) ;
#40 = ORIENTED_EDGE ( 'NONE', *, *, #180, .F. ) ;
#41 = ORIENTED_EDGE ( 'NONE', *, *, #214, .T. ) ;
#42 = APPROVAL ( #163, 'NEURÈENÝ' ) ;
#43 = AXIS2_PLACEMENT_3D ( 'NONE', #19, #235, #24 ) ;
#44 = APPROVAL_DATE_TIME ( #112, #15 ) ;
#45 = DIRECTION ( 'NONE',  ( 0.000000000000000000, 0.000000000000000000, -1.000000000000000000 ) ) ;
#46 = ADVANCED_FACE ( 'NONE', ( #59 ), #32, .T. ) ;
#47 = CARTESIAN_POINT ( 'NONE',  ( 6.000000000000000888, 7.347880794884120722E-16, 5.000000000000000000 ) ) ;
#48 = CARTESIAN_POINT ( 'NONE',  ( 0.000000000000000000, 0.000000000000000000, 5.000000000000000000 ) ) ;
#49 = CARTESIAN_POINT ( 'NONE',  ( 0.000000000000000000, 0.000000000000000000, 5.000000000000000000 ) ) ;
#50 = AXIS2_PLACEMENT_3D ( 'NONE', #49, #79, #242 ) ;
#51 = LINE ( 'NONE', #47, #296 ) ;
#52 = CARTESIAN_POINT ( 'NONE',  ( -3.000000000000000444, 0.000000000000000000, 635.0000000000000000 ) ) ;
#53 = DIRECTION ( 'NONE',  ( 0.000000000000000000, 0.000000000000000000, 1.000000000000000000 ) ) ;
#54 = DIRECTION ( 'NONE',  ( 1.000000000000000000, 0.000000000000000000, 0.000000000000000000 ) ) ;
#55 = AXIS2_PLACEMENT_3D ( 'NONE', #144, #100, #170 ) ;
#56 = EDGE_CURVE ( 'NONE', #271, #110, #181, .T. ) ;
#57 = FACE_OUTER_BOUND ( 'NONE', #108, .T. ) ;
#58 = APPROVAL_PERSON_ORGANIZATION ( #159, #288, #277 ) ;
#59 = FACE_OUTER_BOUND ( 'NONE', #267, .T. ) ;
#60 = PRODUCT_DEFINITION ( 'NEZNÁMÝ', '', #216, #251 ) ;
#61 = ORIENTED_EDGE ( 'NONE', *, *, #164, .T. ) ;
#62 = EDGE_LOOP ( 'NONE', ( #293, #40, #61, #174 ) ) ;
#63 = DIRECTION ( 'NONE',  ( 1.000000000000000000, 0.000000000000000000, 0.000000000000000000 ) ) ;
#64 = EDGE_CURVE ( 'NONE', #13, #109, #278, .T. ) ;
#65 = AXIS2_PLACEMENT_3D ( 'NONE', #153, #8, #270 ) ;
#66 = LOCAL_TIME ( 12, 12, 50.00000000000000000, #274 ) ;
#67 = PERSON_AND_ORGANIZATION_ROLE ( 'creator' ) ;
#68 = CC_DESIGN_PERSON_AND_ORGANIZATION_ASSIGNMENT ( #172, #72, ( #37 ) ) ;
#69 = LINE ( 'NONE', #115, #39 ) ;
#70 = PERSON_AND_ORGANIZATION_ROLE ( 'design_supplier' ) ;
#71 = DIRECTION ( 'NONE',  ( 0.000000000000000000, -1.000000000000000000, 0.000000000000000000 ) ) ;
#72 = PERSON_AND_ORGANIZATION_ROLE ( 'design_owner' ) ;
#73 = DIRECTION ( 'NONE',  ( 1.000000000000000000, 0.000000000000000000, 0.000000000000000000 ) ) ;
#74 = CC_DESIGN_DATE_AND_TIME_ASSIGNMENT ( #18, #138, ( #228 ) ) ;
#75 = DIRECTION ( 'NONE',  ( 1.000000000000000000, 0.000000000000000000, 0.000000000000000000 ) ) ;
#76 = CC_DESIGN_APPROVAL ( #15, ( #228 ) ) ;
#77 = FACE_OUTER_BOUND ( 'NONE', #244, .T. ) ;
#78 = FACE_BOUND ( 'NONE', #127, .T. ) ;
#79 = DIRECTION ( 'NONE',  ( 0.000000000000000000, 0.000000000000000000, 1.000000000000000000 ) ) ;
#80 = CIRCLE ( 'NONE', #84, 6.000000000000000888 ) ;
#81 = CC_DESIGN_PERSON_AND_ORGANIZATION_ASSIGNMENT ( #233, #70, ( #216 ) ) ;
#82 = CARTESIAN_POINT ( 'NONE',  ( 0.000000000000000000, 0.000000000000000000, 5.000000000000000000 ) ) ;
#83 = ORIENTED_EDGE ( 'NONE', *, *, #182, .F. ) ;
#84 = AXIS2_PLACEMENT_3D ( 'NONE', #21, #239, #256 ) ;
#85 = ORIENTED_EDGE ( 'NONE', *, *, #117, .F. ) ;
#86 = ORIENTED_EDGE ( 'NONE', *, *, #64, .F. ) ;
#87 = DIRECTION ( 'NONE',  ( -0.000000000000000000, -0.000000000000000000, -1.000000000000000000 ) ) ;
#88 = VERTEX_POINT ( 'NONE', #165 ) ;
#89 = ORIENTED_EDGE ( 'NONE', *, *, #29, .F. ) ;
#90 = ORIENTED_EDGE ( 'NONE', *, *, #249, .T. ) ;
#91 = AXIS2_PLACEMENT_3D ( 'NONE', #143, #53, #54 ) ;
#92 = APPROVAL_STATUS ( 'not_yet_approved' ) ;
#93 = PERSON_AND_ORGANIZATION ( #2, #123 ) ;
#94 = APPROVAL_DATE_TIME ( #229, #288 ) ;
#95 = FACE_OUTER_BOUND ( 'NONE', #295, .T. ) ;
#96 = CIRCLE ( 'NONE', #28, 3.000000000000000444 ) ;
#97 = APPROVAL_PERSON_ORGANIZATION ( #209, #42, #111 ) ;
#98 = FACE_OUTER_BOUND ( 'NONE', #178, .T. ) ;
#99 = DIRECTION ( 'NONE',  ( -0.000000000000000000, -0.000000000000000000, -1.000000000000000000 ) ) ;
#100 = DIRECTION ( 'NONE',  ( 0.000000000000000000, 0.000000000000000000, 1.000000000000000000 ) ) ;
#101 = AXIS2_PLACEMENT_3D ( 'NONE', #166, #284, #162 ) ;
#102 = DIRECTION ( 'NONE',  ( 1.000000000000000000, 0.000000000000000000, 0.000000000000000000 ) ) ;
#103 = CIRCLE ( 'NONE', #273, 0.2000000000000000944 ) ;
#104 = ORIENTED_EDGE ( 'NONE', *, *, #214, .F. ) ;
#105 = CARTESIAN_POINT ( 'NONE',  ( -6.000000000000000888, 0.000000000000000000, 5.000000000000000000 ) ) ;
#106 = DIRECTION ( 'NONE',  ( 1.000000000000000000, 0.000000000000000000, 0.000000000000000000 ) ) ;
#107 = DIRECTION ( 'NONE',  ( 1.000000000000000000, 0.000000000000000000, 0.000000000000000000 ) ) ;
#108 = EDGE_LOOP ( 'NONE', ( #41, #128 ) ) ;
#109 = VERTEX_POINT ( 'NONE', #118 ) ;
#110 = VERTEX_POINT ( 'NONE', #119 ) ;
#111 = APPROVAL_ROLE ( '' ) ;
#112 = DATE_AND_TIME ( #161, #188 ) ;
#113 = CARTESIAN_POINT ( 'NONE',  ( -3.200000000000000622, 3.918869757271530953E-16, 5.199999999999982414 ) ) ;
#114 = COORDINATED_UNIVERSAL_TIME_OFFSET ( 1, 0, .AHEAD. ) ;
#115 = CARTESIAN_POINT ( 'NONE',  ( 3.000000000000000444, 3.673940397442060361E-16, 635.0000000000000000 ) ) ;
#116 = DATE_AND_TIME ( #301, #66 ) ;
#117 = EDGE_CURVE ( 'NONE', #109, #179, #258, .T. ) ;
#118 = CARTESIAN_POINT ( 'NONE',  ( -3.000000000000000444, 0.000000000000000000, 5.199999999999982414 ) ) ;
#119 = CARTESIAN_POINT ( 'NONE',  ( -6.000000000000000888, 0.000000000000000000, 0.000000000000000000 ) ) ;
#120 = CARTESIAN_POINT ( 'NONE',  ( 0.000000000000000000, 0.000000000000000000, 0.000000000000000000 ) ) ;
#121 = VECTOR ( 'NONE', #245, 1000.000000000000000 ) ;
#122 = AXIS2_PLACEMENT_3D ( 'NONE', #150, #134, #106 ) ;
#123 = ORGANIZATION ( 'NEURÈENÝ', 'NEURÈENÝ', '' ) ;
#124 = EDGE_CURVE ( 'NONE', #88, #179, #69, .T. ) ;
#125 = EDGE_CURVE ( 'NONE', #88, #13, #96, .T. ) ;
#126 = AXIS2_PLACEMENT_3D ( 'NONE', #306, #260, #102 ) ;
#127 = EDGE_LOOP ( 'NONE', ( #203, #198 ) ) ;
#128 = ORIENTED_EDGE ( 'NONE', *, *, #125, .T. ) ;
#129 = VERTEX_POINT ( 'NONE', #191 ) ;
#130 = CARTESIAN_POINT ( 'NONE',  ( 0.000000000000000000, 0.000000000000000000, 635.0000000000000000 ) ) ;
#131 = EDGE_LOOP ( 'NONE', ( #85, #90, #89, #291 ) ) ;
#132 = CIRCLE ( 'NONE', #173, 3.200000000000000622 ) ;
#133 = EDGE_CURVE ( 'NONE', #34, #199, #51, .T. ) ;
#134 = DIRECTION ( 'NONE',  ( 0.000000000000000000, 0.000000000000000000, 1.000000000000000000 ) ) ;
#135 = COORDINATED_UNIVERSAL_TIME_OFFSET ( 1, 0, .AHEAD. ) ;
#136 = APPROVAL_DATE_TIME ( #189, #42 ) ;
#137 = CIRCLE ( 'NONE', #208, 3.000000000000000444 ) ;
#138 = DATE_TIME_ROLE ( 'classification_date' ) ;
#139 = CYLINDRICAL_SURFACE ( 'NONE', #30, 6.000000000000000888 ) ;
#140 = APPROVAL_STATUS ( 'not_yet_approved' ) ;
#141 = CARTESIAN_POINT ( 'NONE',  ( 3.000000000000000444, 3.673940397442060361E-16, 5.199999999999982414 ) ) ;
#142 = DIRECTION ( 'NONE',  ( -1.000000000000000000, 0.000000000000000000, 0.000000000000000000 ) ) ;
#143 = CARTESIAN_POINT ( 'NONE',  ( 0.000000000000000000, 0.000000000000000000, 5.000000000000000000 ) ) ;
#144 = CARTESIAN_POINT ( 'NONE',  ( 0.000000000000000000, 0.000000000000000000, 0.000000000000000000 ) ) ;
#145 = FACE_OUTER_BOUND ( 'NONE', #197, .T. ) ;
#146 = CARTESIAN_POINT ( 'NONE',  ( 0.000000000000000000, 0.000000000000000000, 635.0000000000000000 ) ) ;
#147 = DIRECTION ( 'NONE',  ( -1.000000000000000000, 0.000000000000000000, 0.000000000000000000 ) ) ;
#148 = CC_DESIGN_SECURITY_CLASSIFICATION ( #228, ( #216 ) ) ;
#149 = ADVANCED_FACE ( 'NONE', ( #282 ), #186, .F. ) ;
#150 = CARTESIAN_POINT ( 'NONE',  ( 0.000000000000000000, 0.000000000000000000, 0.000000000000000000 ) ) ;
#151 = ORIENTED_EDGE ( 'NONE', *, *, #56, .F. ) ;
#152 = CIRCLE ( 'NONE', #126, 3.200000000000000622 ) ;
#153 = CARTESIAN_POINT ( 'NONE',  ( 0.000000000000000000, 0.000000000000000000, 5.000000000000000000 ) ) ;
#154 = PRODUCT_DEFINITION_SHAPE ( 'NONE', 'NONE',  #60 ) ;
#155 = ORIENTED_EDGE ( 'NONE', *, *, #133, .F. ) ;
#156 = ORIENTED_EDGE ( 'NONE', *, *, #64, .T. ) ;
#157 = ORIENTED_EDGE ( 'NONE', *, *, #27, .T. ) ;
#158 = TOROIDAL_SURFACE ( 'NONE', #7, 3.200000000000000622, 0.2000000000000000111 ) ;
#159 = PERSON_AND_ORGANIZATION ( #2, #123 ) ;
#160 = ADVANCED_FACE ( 'NONE', ( #98 ), #254, .F. ) ;
#161 = CALENDAR_DATE ( 2022, 7, 7 ) ;
#162 = DIRECTION ( 'NONE',  ( 1.000000000000000000, 0.000000000000000000, 0.000000000000000000 ) ) ;
#163 = APPROVAL_STATUS ( 'not_yet_approved' ) ;
#164 = EDGE_CURVE ( 'NONE', #179, #14, #220, .T. ) ;
#165 = CARTESIAN_POINT ( 'NONE',  ( 3.000000000000000444, 3.673940397442060361E-16, 635.0000000000000000 ) ) ;
#166 = CARTESIAN_POINT ( 'NONE',  ( 0.000000000000000000, 0.000000000000000000, 5.199999999999982414 ) ) ;
#167 = AXIS2_PLACEMENT_3D ( 'NONE', #211, #71, #45 ) ;
#168 = CC_DESIGN_APPROVAL ( #288, ( #216 ) ) ;
#169 = CYLINDRICAL_SURFACE ( 'NONE', #17, 3.000000000000000444 ) ;
#170 = DIRECTION ( 'NONE',  ( 1.000000000000000000, 0.000000000000000000, -0.000000000000000000 ) ) ;
#171 =( NAMED_UNIT ( * ) PLANE_ANGLE_UNIT ( ) SI_UNIT ( $, .RADIAN. ) );
#172 = PERSON_AND_ORGANIZATION ( #2, #123 ) ;
#173 = AXIS2_PLACEMENT_3D ( 'NONE', #82, #87, #107 ) ;
#174 = ORIENTED_EDGE ( 'NONE', *, *, #286, .F. ) ;
#175 = ORIENTED_EDGE ( 'NONE', *, *, #117, .T. ) ;
#176 = ORIENTED_EDGE ( 'NONE', *, *, #56, .T. ) ;
#177 = CIRCLE ( 'NONE', #248, 3.000000000000000444 ) ;
#178 = EDGE_LOOP ( 'NONE', ( #223, #38 ) ) ;
#179 = VERTEX_POINT ( 'NONE', #141 ) ;
#180 = EDGE_CURVE ( 'NONE', #179, #109, #137, .T. ) ;
#181 = LINE ( 'NONE', #105, #121 ) ;
#182 = EDGE_CURVE ( 'NONE', #34, #271, #80, .T. ) ;
#183 = DATE_TIME_ROLE ( 'creation_date' ) ;
#184 = PERSON_AND_ORGANIZATION_ROLE ( 'classification_officer' ) ;
#185 = PERSON_AND_ORGANIZATION ( #2, #123 ) ;
#186 = TOROIDAL_SURFACE ( 'NONE', #101, 3.200000000000000622, 0.2000000000000000111 ) ;
#187 = CYLINDRICAL_SURFACE ( 'NONE', #205, 3.000000000000000444 ) ;
#188 = LOCAL_TIME ( 12, 12, 50.00000000000000000, #226 ) ;
#189 = DATE_AND_TIME ( #204, #194 ) ;
#190 = DIRECTION ( 'NONE',  ( 1.000000000000000000, 0.000000000000000000, 0.000000000000000000 ) ) ;
#191 = CARTESIAN_POINT ( 'NONE',  ( -3.200000000000000622, 3.918869757271530953E-16, 4.999999999999991118 ) ) ;
#192 = DIRECTION ( 'NONE',  ( 1.000000000000000000, 0.000000000000000000, 0.000000000000000000 ) ) ;
#193 = AXIS2_PLACEMENT_3D ( 'NONE', #130, #290, #12 ) ;
#194 = LOCAL_TIME ( 12, 12, 50.00000000000000000, #135 ) ;
#195 = DIRECTION ( 'NONE',  ( -0.000000000000000000, -0.000000000000000000, -1.000000000000000000 ) ) ;
#196 = MECHANICAL_CONTEXT ( 'NONE', #20, 'mechanical' ) ;
#197 = EDGE_LOOP ( 'NONE', ( #289, #104, #156, #175 ) ) ;
#198 = ORIENTED_EDGE ( 'NONE', *, *, #286, .T. ) ;
#199 = VERTEX_POINT ( 'NONE', #1 ) ;
#200 = ORIENTED_EDGE ( 'NONE', *, *, #124, .T. ) ;
#201 = MANIFOLD_SOLID_BREP ( 'Zaoblit1', #304 ) ;
#202 = CARTESIAN_POINT ( 'NONE',  ( 0.000000000000000000, 0.000000000000000000, 5.199999999999982414 ) ) ;
#203 = ORIENTED_EDGE ( 'NONE', *, *, #29, .T. ) ;
#204 = CALENDAR_DATE ( 2022, 7, 7 ) ;
#205 = AXIS2_PLACEMENT_3D ( 'NONE', #25, #195, #285 ) ;
#206 = PERSON_AND_ORGANIZATION_ROLE ( 'creator' ) ;
#207 = DIRECTION ( 'NONE',  ( 1.224646799147353207E-16, 1.000000000000000000, -0.000000000000000000 ) ) ;
#208 = AXIS2_PLACEMENT_3D ( 'NONE', #241, #232, #192 ) ;
#209 = PERSON_AND_ORGANIZATION ( #2, #123 ) ;
#210 = CARTESIAN_POINT ( 'NONE',  ( 0.000000000000000000, 0.000000000000000000, 5.199999999999982414 ) ) ;
#211 = CARTESIAN_POINT ( 'NONE',  ( 3.200000000000000622, 0.000000000000000000, 5.199999999999982414 ) ) ;
#212 = PLANE ( 'NONE',  #50 ) ;
#213 = CC_DESIGN_APPROVAL ( #42, ( #60 ) ) ;
#214 = EDGE_CURVE ( 'NONE', #13, #88, #177, .T. ) ;
#215 = CIRCLE ( 'NONE', #91, 6.000000000000000888 ) ;
#216 = PRODUCT_DEFINITION_FORMATION_WITH_SPECIFIED_SOURCE ( 'LIBOVOLNÝ', '', #37, .NOT_KNOWN. ) ;
#217 = ORIENTED_EDGE ( 'NONE', *, *, #275, .T. ) ;
#218 = ORIENTED_EDGE ( 'NONE', *, *, #275, .F. ) ;
#219 = EDGE_LOOP ( 'NONE', ( #217, #33 ) ) ;
#220 = CIRCLE ( 'NONE', #167, 0.1999999999999996503 ) ;
#221 = APPROVAL_PERSON_ORGANIZATION ( #225, #15, #22 ) ;
#222 = ORIENTED_EDGE ( 'NONE', *, *, #125, .F. ) ;
#223 = ORIENTED_EDGE ( 'NONE', *, *, #238, .F. ) ;
#224 = PRODUCT_RELATED_PRODUCT_CATEGORY ( 'detail', '', ( #37 ) ) ;
#225 = PERSON_AND_ORGANIZATION ( #2, #123 ) ;
#226 = COORDINATED_UNIVERSAL_TIME_OFFSET ( 1, 0, .AHEAD. ) ;
#227 = VECTOR ( 'NONE', #26, 1000.000000000000000 ) ;
#228 = SECURITY_CLASSIFICATION ( '', '', #250 ) ;
#229 = DATE_AND_TIME ( #252, #236 ) ;
#230 = ADVANCED_FACE ( 'NONE', ( #77 ), #139, .T. ) ;
#231 = DIRECTION ( 'NONE',  ( -0.000000000000000000, -0.000000000000000000, -1.000000000000000000 ) ) ;
#232 = DIRECTION ( 'NONE',  ( 0.000000000000000000, 0.000000000000000000, 1.000000000000000000 ) ) ;
#233 = PERSON_AND_ORGANIZATION ( #2, #123 ) ;
#234 = AXIS2_PLACEMENT_3D ( 'NONE', #210, #307, #305 ) ;
#235 = DIRECTION ( 'NONE',  ( 0.000000000000000000, 0.000000000000000000, 1.000000000000000000 ) ) ;
#236 = LOCAL_TIME ( 12, 12, 50.00000000000000000, #302 ) ;
#237 =( LENGTH_UNIT ( ) NAMED_UNIT ( * ) SI_UNIT ( .MILLI., .METRE. ) );
#238 = EDGE_CURVE ( 'NONE', #110, #199, #287, .T. ) ;
#239 = DIRECTION ( 'NONE',  ( 0.000000000000000000, 0.000000000000000000, 1.000000000000000000 ) ) ;
#240 =( NAMED_UNIT ( * ) SI_UNIT ( $, .STERADIAN. ) SOLID_ANGLE_UNIT ( ) );
#241 = CARTESIAN_POINT ( 'NONE',  ( 0.000000000000000000, 0.000000000000000000, 5.199999999999982414 ) ) ;
#242 = DIRECTION ( 'NONE',  ( 1.000000000000000000, 0.000000000000000000, -0.000000000000000000 ) ) ;
#243 = CARTESIAN_POINT ( 'NONE',  ( 3.200000000000000622, 0.000000000000000000, 4.999999999999991118 ) ) ;
#244 = EDGE_LOOP ( 'NONE', ( #155, #218, #176, #268 ) ) ;
#245 = DIRECTION ( 'NONE',  ( -0.000000000000000000, -0.000000000000000000, -1.000000000000000000 ) ) ;
#246 = FACE_OUTER_BOUND ( 'NONE', #131, .T. ) ;
#247 = PLANE ( 'NONE',  #193 ) ;
#248 = AXIS2_PLACEMENT_3D ( 'NONE', #253, #259, #190 ) ;
#249 = EDGE_CURVE ( 'NONE', #109, #129, #103, .T. ) ;
#250 = SECURITY_CLASSIFICATION_LEVEL ( 'unclassified' ) ;
#251 = DESIGN_CONTEXT ( 'detailed design', #263, 'design' ) ;
#252 = CALENDAR_DATE ( 2022, 7, 7 ) ;
#253 = CARTESIAN_POINT ( 'NONE',  ( 0.000000000000000000, 0.000000000000000000, 635.0000000000000000 ) ) ;
#254 = PLANE ( 'NONE',  #55 ) ;
#255 = SHAPE_DEFINITION_REPRESENTATION ( #154, #16 ) ;
#256 = DIRECTION ( 'NONE',  ( 1.000000000000000000, 0.000000000000000000, 0.000000000000000000 ) ) ;
#257 = FACE_OUTER_BOUND ( 'NONE', #219, .T. ) ;
#258 = CIRCLE ( 'NONE', #234, 3.000000000000000444 ) ;
#259 = DIRECTION ( 'NONE',  ( 0.000000000000000000, 0.000000000000000000, 1.000000000000000000 ) ) ;
#260 = DIRECTION ( 'NONE',  ( -0.000000000000000000, -0.000000000000000000, -1.000000000000000000 ) ) ;
#261 = DIRECTION ( 'NONE',  ( -0.000000000000000000, -0.000000000000000000, -1.000000000000000000 ) ) ;
#262 = APPLICATION_PROTOCOL_DEFINITION ( 'international standard', 'config_control_design', 1994, #20 ) ;
#263 = APPLICATION_CONTEXT ( 'configuration controlled 3d designs of mechanical parts and assemblies' ) ;
#264 = APPLICATION_PROTOCOL_DEFINITION ( 'international standard', 'config_control_design', 1994, #263 ) ;
#265 = ADVANCED_FACE ( 'NONE', ( #95 ), #187, .T. ) ;
#266 = CARTESIAN_POINT ( 'NONE',  ( 6.000000000000000888, 7.347880794884120722E-16, 5.000000000000000000 ) ) ;
#267 = EDGE_LOOP ( 'NONE', ( #83, #292, #157, #151 ) ) ;
#268 = ORIENTED_EDGE ( 'NONE', *, *, #238, .T. ) ;
#269 = CARTESIAN_POINT ( 'NONE',  ( -3.000000000000000444, 0.000000000000000000, 635.0000000000000000 ) ) ;
#270 = DIRECTION ( 'NONE',  ( -1.000000000000000000, 0.000000000000000000, 0.000000000000000000 ) ) ;
#271 = VERTEX_POINT ( 'NONE', #3 ) ;
#272 = ADVANCED_FACE ( 'NONE', ( #78, #257 ), #212, .T. ) ;
#273 = AXIS2_PLACEMENT_3D ( 'NONE', #113, #207, #303 ) ;
#274 = COORDINATED_UNIVERSAL_TIME_OFFSET ( 1, 0, .AHEAD. ) ;
#275 = EDGE_CURVE ( 'NONE', #271, #34, #215, .T. ) ;
#276 = CALENDAR_DATE ( 2022, 7, 7 ) ;
#277 = APPROVAL_ROLE ( '' ) ;
#278 = LINE ( 'NONE', #52, #227 ) ;
#279 = ADVANCED_FACE ( 'NONE', ( #145 ), #169, .T. ) ;
#280 = DIRECTION ( 'NONE',  ( 0.000000000000000000, 0.000000000000000000, 1.000000000000000000 ) ) ;
#281 = DIRECTION ( 'NONE',  ( 0.000000000000000000, 0.000000000000000000, 1.000000000000000000 ) ) ;
#282 = FACE_OUTER_BOUND ( 'NONE', #62, .T. ) ;
#283 = CARTESIAN_POINT ( 'NONE',  ( 0.000000000000000000, 0.000000000000000000, 635.0000000000000000 ) ) ;
#284 = DIRECTION ( 'NONE',  ( 0.000000000000000000, 0.000000000000000000, 1.000000000000000000 ) ) ;
#285 = DIRECTION ( 'NONE',  ( -1.000000000000000000, 0.000000000000000000, 0.000000000000000000 ) ) ;
#286 = EDGE_CURVE ( 'NONE', #129, #14, #152, .T. ) ;
#287 = CIRCLE ( 'NONE', #43, 6.000000000000000888 ) ;
#288 = APPROVAL ( #92, 'NEURÈENÝ' ) ;
#289 = ORIENTED_EDGE ( 'NONE', *, *, #124, .F. ) ;
#290 = DIRECTION ( 'NONE',  ( 0.000000000000000000, 0.000000000000000000, 1.000000000000000000 ) ) ;
#291 = ORIENTED_EDGE ( 'NONE', *, *, #164, .F. ) ;
#292 = ORIENTED_EDGE ( 'NONE', *, *, #133, .T. ) ;
#293 = ORIENTED_EDGE ( 'NONE', *, *, #249, .F. ) ;
#294 = CC_DESIGN_DATE_AND_TIME_ASSIGNMENT ( #116, #183, ( #60 ) ) ;
#295 = EDGE_LOOP ( 'NONE', ( #222, #200, #9, #86 ) ) ;
#296 = VECTOR ( 'NONE', #261, 1000.000000000000000 ) ;
#297 = PERSON_AND_ORGANIZATION ( #2, #123 ) ;
#298 =( GEOMETRIC_REPRESENTATION_CONTEXT ( 3 ) GLOBAL_UNCERTAINTY_ASSIGNED_CONTEXT ( ( #299 ) ) GLOBAL_UNIT_ASSIGNED_CONTEXT ( ( #237, #171, #240 ) ) REPRESENTATION_CONTEXT ( 'NONE', 'WORKASPACE' ) );
#299 = UNCERTAINTY_MEASURE_WITH_UNIT (LENGTH_MEASURE( 1.000000000000000082E-05 ), #237, 'distance_accuracy_value', 'NONE');
#300 = CC_DESIGN_PERSON_AND_ORGANIZATION_ASSIGNMENT ( #185, #67, ( #216 ) ) ;
#301 = CALENDAR_DATE ( 2022, 7, 7 ) ;
#302 = COORDINATED_UNIVERSAL_TIME_OFFSET ( 1, 0, .AHEAD. ) ;
#303 = DIRECTION ( 'NONE',  ( -1.000000000000000000, 1.224646799147353207E-16, 0.000000000000000000 ) ) ;
#304 = CLOSED_SHELL ( 'NONE', ( #35, #265, #46, #230, #272, #160, #279, #4, #149 ) ) ;
#305 = DIRECTION ( 'NONE',  ( 1.000000000000000000, 0.000000000000000000, 0.000000000000000000 ) ) ;
#306 = CARTESIAN_POINT ( 'NONE',  ( 0.000000000000000000, 0.000000000000000000, 5.000000000000000000 ) ) ;
#307 = DIRECTION ( 'NONE',  ( 0.000000000000000000, 0.000000000000000000, 1.000000000000000000 ) ) ;
ENDSEC;
END-ISO-10303-21;
