ISO-10303-21;
HEADER;
FILE_DESCRIPTION (( 'STEP AP203' ),
    '1' );
FILE_NAME ('3460.STEP',
    '2022-07-07T10:30:30',
    ( '' ),
    ( '' ),
    'SwSTEP 2.0',
    'SolidWorks 2019',
    '' );
FILE_SCHEMA (( 'CONFIG_CONTROL_DESIGN' ));
ENDSEC;

DATA;
#1 = DIRECTION ( 'NONE',  ( 1.000000000000000000, 0.000000000000000000, -0.000000000000000000 ) ) ;
#2 = ORIENTED_EDGE ( 'NONE', *, *, #116, .F. ) ;
#3 = PRODUCT_DEFINITION_FORMATION_WITH_SPECIFIED_SOURCE ( 'LIBOVOLNÝ', '', #44, .NOT_KNOWN. ) ;
#4 = AXIS2_PLACEMENT_3D ( 'NONE', #181, #286, #289 ) ;
#5 = CARTESIAN_POINT ( 'NONE',  ( -1.500000000000000222, 0.000000000000000000, 633.0000000000000000 ) ) ;
#6 = DIRECTION ( 'NONE',  ( 0.000000000000000000, 0.000000000000000000, 1.000000000000000000 ) ) ;
#7 = DIRECTION ( 'NONE',  ( 1.000000000000000000, 0.000000000000000000, 0.000000000000000000 ) ) ;
#8 = ADVANCED_FACE ( 'NONE', ( #159 ), #255, .T. ) ;
#9 = FACE_BOUND ( 'NONE', #55, .T. ) ;
#10 = CC_DESIGN_APPROVAL ( #257, ( #292 ) ) ;
#11 = FACE_OUTER_BOUND ( 'NONE', #60, .T. ) ;
#12 = AXIS2_PLACEMENT_3D ( 'NONE', #244, #6, #30 ) ;
#13 = PRODUCT_DEFINITION ( 'NEZNÁMÝ', '', #3, #260 ) ;
#14 = CARTESIAN_POINT ( 'NONE',  ( 1.500000000000000222, 1.836970198721030181E-16, 633.0000000000000000 ) ) ;
#15 = EDGE_LOOP ( 'NONE', ( #36, #166, #136, #32 ) ) ;
#16 = DIRECTION ( 'NONE',  ( 1.000000000000000000, 0.000000000000000000, 0.000000000000000000 ) ) ;
#17 = EDGE_LOOP ( 'NONE', ( #63, #279, #227, #20 ) ) ;
#18 = DIRECTION ( 'NONE',  ( 1.000000000000000000, 0.000000000000000000, 0.000000000000000000 ) ) ;
#19 = ADVANCED_FACE ( 'NONE', ( #134 ), #111, .T. ) ;
#20 = ORIENTED_EDGE ( 'NONE', *, *, #231, .F. ) ;
#21 = PLANE ( 'NONE',  #132 ) ;
#22 = EDGE_CURVE ( 'NONE', #196, #284, #240, .T. ) ;
#23 = APPLICATION_CONTEXT ( 'configuration controlled 3d designs of mechanical parts and assemblies' ) ;
#24 = DIRECTION ( 'NONE',  ( -1.000000000000000000, 0.000000000000000000, 0.000000000000000000 ) ) ;
#25 = VERTEX_POINT ( 'NONE', #41 ) ;
#26 = DIRECTION ( 'NONE',  ( 0.000000000000000000, 0.000000000000000000, 1.000000000000000000 ) ) ;
#27 = CIRCLE ( 'NONE', #106, 1.500000000000000222 ) ;
#28 = DIRECTION ( 'NONE',  ( -0.000000000000000000, -0.000000000000000000, -1.000000000000000000 ) ) ;
#29 = CARTESIAN_POINT ( 'NONE',  ( 0.000000000000000000, 0.000000000000000000, 0.000000000000000000 ) ) ;
#30 = DIRECTION ( 'NONE',  ( 1.000000000000000000, 0.000000000000000000, 0.000000000000000000 ) ) ;
#31 = CARTESIAN_POINT ( 'NONE',  ( 3.000000000000000444, 3.673940397442060361E-16, 3.000000000000000000 ) ) ;
#32 = ORIENTED_EDGE ( 'NONE', *, *, #137, .T. ) ;
#33 = AXIS2_PLACEMENT_3D ( 'NONE', #147, #243, #217 ) ;
#34 = DATE_AND_TIME ( #280, #128 ) ;
#35 = VERTEX_POINT ( 'NONE', #115 ) ;
#36 = ORIENTED_EDGE ( 'NONE', *, *, #103, .F. ) ;
#37 = APPROVAL_ROLE ( '' ) ;
#38 = ORIENTED_EDGE ( 'NONE', *, *, #293, .F. ) ;
#39 = EDGE_CURVE ( 'NONE', #129, #201, #122, .T. ) ;
#40 = CARTESIAN_POINT ( 'NONE',  ( 0.000000000000000000, 0.000000000000000000, 633.0000000000000000 ) ) ;
#41 = CARTESIAN_POINT ( 'NONE',  ( 1.700000000000000400, 0.000000000000000000, 2.999999999999990674 ) ) ;
#42 = CIRCLE ( 'NONE', #189, 3.000000000000000444 ) ;
#43 = CARTESIAN_POINT ( 'NONE',  ( 0.000000000000000000, 0.000000000000000000, 3.000000000000000000 ) ) ;
#44 = PRODUCT ( '3460', '3460', '', ( #226 ) ) ;
#45 = DIRECTION ( 'NONE',  ( -1.000000000000000000, 0.000000000000000000, 0.000000000000000000 ) ) ;
#46 = ORIENTED_EDGE ( 'NONE', *, *, #39, .T. ) ;
#47 = PERSON ( 'NEURÈENÝ', 'NEURÈENÝ', 'NEURÈENÝ', ('NEURÈENÝ'), ('NEURÈENÝ'), ('NEURÈENÝ') ) ;
#48 = CARTESIAN_POINT ( 'NONE',  ( 0.000000000000000000, 0.000000000000000000, 3.199999999999980638 ) ) ;
#49 = DIRECTION ( 'NONE',  ( 1.000000000000000000, 0.000000000000000000, -0.000000000000000000 ) ) ;
#50 = CARTESIAN_POINT ( 'NONE',  ( 0.000000000000000000, 0.000000000000000000, 633.0000000000000000 ) ) ;
#51 = DIRECTION ( 'NONE',  ( 1.000000000000000000, 0.000000000000000000, 0.000000000000000000 ) ) ;
#52 = VECTOR ( 'NONE', #198, 1000.000000000000000 ) ;
#53 = DIRECTION ( 'NONE',  ( 1.000000000000000000, 0.000000000000000000, 0.000000000000000000 ) ) ;
#54 = DATE_AND_TIME ( #100, #282 ) ;
#55 = EDGE_LOOP ( 'NONE', ( #67, #135 ) ) ;
#56 = ORIENTED_EDGE ( 'NONE', *, *, #262, .T. ) ;
#57 = CIRCLE ( 'NONE', #199, 1.500000000000000222 ) ;
#58 = ORIENTED_EDGE ( 'NONE', *, *, #162, .F. ) ;
#59 = PERSON_AND_ORGANIZATION ( #47, #175 ) ;
#60 = EDGE_LOOP ( 'NONE', ( #108, #186, #85, #2 ) ) ;
#61 = PERSON_AND_ORGANIZATION_ROLE ( 'design_owner' ) ;
#62 = EDGE_LOOP ( 'NONE', ( #90, #238 ) ) ;
#63 = ORIENTED_EDGE ( 'NONE', *, *, #39, .F. ) ;
#64 = ADVANCED_FACE ( 'NONE', ( #208 ), #233, .T. ) ;
#65 = CARTESIAN_POINT ( 'NONE',  ( 0.000000000000000000, 0.000000000000000000, 3.000000000000000000 ) ) ;
#66 = CALENDAR_DATE ( 2022, 7, 7 ) ;
#67 = ORIENTED_EDGE ( 'NONE', *, *, #293, .T. ) ;
#68 = ADVANCED_FACE ( 'NONE', ( #161 ), #21, .F. ) ;
#69 = CIRCLE ( 'NONE', #246, 1.700000000000000400 ) ;
#70 = DIRECTION ( 'NONE',  ( 1.000000000000000000, 0.000000000000000000, 0.000000000000000000 ) ) ;
#71 = DIRECTION ( 'NONE',  ( -1.000000000000000000, 0.000000000000000000, 0.000000000000000000 ) ) ;
#72 = CIRCLE ( 'NONE', #249, 3.000000000000000444 ) ;
#73 = CARTESIAN_POINT ( 'NONE',  ( 1.500000000000000222, 1.836970198721030181E-16, 3.199999999999980638 ) ) ;
#74 = CARTESIAN_POINT ( 'NONE',  ( 1.500000000000000222, 1.836970198721030181E-16, 633.0000000000000000 ) ) ;
#75 = DIRECTION ( 'NONE',  ( 0.000000000000000000, 0.000000000000000000, 1.000000000000000000 ) ) ;
#76 = DIRECTION ( 'NONE',  ( -0.000000000000000000, -0.000000000000000000, -1.000000000000000000 ) ) ;
#77 = PERSON_AND_ORGANIZATION_ROLE ( 'creator' ) ;
#78 =( LENGTH_UNIT ( ) NAMED_UNIT ( * ) SI_UNIT ( .MILLI., .METRE. ) );
#79 = APPLICATION_PROTOCOL_DEFINITION ( 'international standard', 'config_control_design', 1994, #101 ) ;
#80 = PRODUCT_DEFINITION_SHAPE ( 'NONE', 'NONE',  #13 ) ;
#81 = DIRECTION ( 'NONE',  ( 0.000000000000000000, 0.000000000000000000, 1.000000000000000000 ) ) ;
#82 = ADVANCED_FACE ( 'NONE', ( #183 ), #191, .T. ) ;
#83 = DIRECTION ( 'NONE',  ( -1.000000000000000000, 0.000000000000000000, 0.000000000000000000 ) ) ;
#84 = CC_DESIGN_PERSON_AND_ORGANIZATION_ASSIGNMENT ( #247, #124, ( #3 ) ) ;
#85 = ORIENTED_EDGE ( 'NONE', *, *, #88, .T. ) ;
#86 = AXIS2_PLACEMENT_3D ( 'NONE', #174, #76, #18 ) ;
#87 = COORDINATED_UNIVERSAL_TIME_OFFSET ( 1, 0, .AHEAD. ) ;
#88 = EDGE_CURVE ( 'NONE', #164, #35, #173, .T. ) ;
#89 = VERTEX_POINT ( 'NONE', #221 ) ;
#90 = ORIENTED_EDGE ( 'NONE', *, *, #22, .T. ) ;
#91 = CARTESIAN_POINT ( 'NONE',  ( -1.700000000000000400, 2.081899558550500773E-16, 2.999999999999990674 ) ) ;
#92 =( GEOMETRIC_REPRESENTATION_CONTEXT ( 3 ) GLOBAL_UNCERTAINTY_ASSIGNED_CONTEXT ( ( #93 ) ) GLOBAL_UNIT_ASSIGNED_CONTEXT ( ( #78, #193, #176 ) ) REPRESENTATION_CONTEXT ( 'NONE', 'WORKASPACE' ) );
#93 = UNCERTAINTY_MEASURE_WITH_UNIT (LENGTH_MEASURE( 1.000000000000000082E-05 ), #78, 'distance_accuracy_value', 'NONE');
#94 = CC_DESIGN_DATE_AND_TIME_ASSIGNMENT ( #178, #102, ( #13 ) ) ;
#95 = AXIS2_PLACEMENT_3D ( 'NONE', #149, #239, #71 ) ;
#96 = CARTESIAN_POINT ( 'NONE',  ( -3.000000000000000444, 0.000000000000000000, 0.000000000000000000 ) ) ;
#97 = DIRECTION ( 'NONE',  ( 0.000000000000000000, 0.000000000000000000, 1.000000000000000000 ) ) ;
#98 = CARTESIAN_POINT ( 'NONE',  ( 0.000000000000000000, 0.000000000000000000, 3.000000000000000000 ) ) ;
#99 = CIRCLE ( 'NONE', #141, 3.000000000000000444 ) ;
#100 = CALENDAR_DATE ( 2022, 7, 7 ) ;
#101 = APPLICATION_CONTEXT ( 'configuration controlled 3d designs of mechanical parts and assemblies' ) ;
#102 = DATE_TIME_ROLE ( 'creation_date' ) ;
#103 = EDGE_CURVE ( 'NONE', #284, #164, #297, .T. ) ;
#104 = PERSON_AND_ORGANIZATION ( #47, #175 ) ;
#105 = ORIENTED_EDGE ( 'NONE', *, *, #231, .T. ) ;
#106 = AXIS2_PLACEMENT_3D ( 'NONE', #48, #26, #53 ) ;
#107 = COORDINATED_UNIVERSAL_TIME_OFFSET ( 1, 0, .AHEAD. ) ;
#108 = ORIENTED_EDGE ( 'NONE', *, *, #142, .F. ) ;
#109 = DATE_AND_TIME ( #66, #237 ) ;
#110 = EDGE_CURVE ( 'NONE', #140, #25, #69, .T. ) ;
#111 = CYLINDRICAL_SURFACE ( 'NONE', #256, 3.000000000000000444 ) ;
#112 = CIRCLE ( 'NONE', #295, 0.2000000000000000944 ) ;
#113 = DATE_TIME_ROLE ( 'classification_date' ) ;
#114 = CARTESIAN_POINT ( 'NONE',  ( 0.000000000000000000, 0.000000000000000000, 0.000000000000000000 ) ) ;
#115 = CARTESIAN_POINT ( 'NONE',  ( -1.500000000000000222, 0.000000000000000000, 3.199999999999980638 ) ) ;
#116 = EDGE_CURVE ( 'NONE', #196, #35, #271, .T. ) ;
#117 = EDGE_LOOP ( 'NONE', ( #265, #224, #56, #307 ) ) ;
#118 = DIRECTION ( 'NONE',  ( 1.000000000000000000, 0.000000000000000000, 0.000000000000000000 ) ) ;
#119 = DIRECTION ( 'NONE',  ( -0.000000000000000000, -0.000000000000000000, -1.000000000000000000 ) ) ;
#120 = CARTESIAN_POINT ( 'NONE',  ( 1.700000000000000400, 0.000000000000000000, 3.199999999999980638 ) ) ;
#121 = DIRECTION ( 'NONE',  ( 1.000000000000000000, 0.000000000000000000, 0.000000000000000000 ) ) ;
#122 = CIRCLE ( 'NONE', #4, 3.000000000000000444 ) ;
#123 = DIRECTION ( 'NONE',  ( 0.000000000000000000, 0.000000000000000000, 1.000000000000000000 ) ) ;
#124 = PERSON_AND_ORGANIZATION_ROLE ( 'design_supplier' ) ;
#125 = EDGE_LOOP ( 'NONE', ( #248, #251, #38, #155 ) ) ;
#126 = ORIENTED_EDGE ( 'NONE', *, *, #273, .F. ) ;
#127 = ORIENTED_EDGE ( 'NONE', *, *, #218, .F. ) ;
#128 = LOCAL_TIME ( 12, 30, 30.00000000000000000, #230 ) ;
#129 = VERTEX_POINT ( 'NONE', #144 ) ;
#130 = MANIFOLD_SOLID_BREP ( 'Zaoblit1', #264 ) ;
#131 = AXIS2_PLACEMENT_3D ( 'NONE', #304, #153, #197 ) ;
#132 = AXIS2_PLACEMENT_3D ( 'NONE', #114, #206, #1 ) ;
#133 = APPROVAL ( #195, 'NEURÈENÝ' ) ;
#134 = FACE_OUTER_BOUND ( 'NONE', #305, .T. ) ;
#135 = ORIENTED_EDGE ( 'NONE', *, *, #110, .T. ) ;
#136 = ORIENTED_EDGE ( 'NONE', *, *, #116, .T. ) ;
#137 = EDGE_CURVE ( 'NONE', #35, #164, #27, .T. ) ;
#138 = DIRECTION ( 'NONE',  ( 1.000000000000000000, 0.000000000000000000, 0.000000000000000000 ) ) ;
#139 = APPROVAL_PERSON_ORGANIZATION ( #203, #257, #285 ) ;
#140 = VERTEX_POINT ( 'NONE', #91 ) ;
#141 = AXIS2_PLACEMENT_3D ( 'NONE', #188, #75, #51 ) ;
#142 = EDGE_CURVE ( 'NONE', #284, #196, #57, .T. ) ;
#143 = DIRECTION ( 'NONE',  ( 1.000000000000000000, 0.000000000000000000, 0.000000000000000000 ) ) ;
#144 = CARTESIAN_POINT ( 'NONE',  ( 3.000000000000000444, 3.673940397442060361E-16, 3.000000000000000000 ) ) ;
#145 = VECTOR ( 'NONE', #268, 1000.000000000000000 ) ;
#146 = LOCAL_TIME ( 12, 30, 30.00000000000000000, #87 ) ;
#147 = CARTESIAN_POINT ( 'NONE',  ( 0.000000000000000000, 0.000000000000000000, 3.000000000000000000 ) ) ;
#148 = FACE_OUTER_BOUND ( 'NONE', #211, .T. ) ;
#149 = CARTESIAN_POINT ( 'NONE',  ( 0.000000000000000000, 0.000000000000000000, 633.0000000000000000 ) ) ;
#150 = APPLICATION_PROTOCOL_DEFINITION ( 'international standard', 'config_control_design', 1994, #23 ) ;
#151 = CC_DESIGN_PERSON_AND_ORGANIZATION_ASSIGNMENT ( #172, #275, ( #13 ) ) ;
#152 = TOROIDAL_SURFACE ( 'NONE', #131, 1.700000000000000400, 0.2000000000000000111 ) ;
#153 = DIRECTION ( 'NONE',  ( 0.000000000000000000, 0.000000000000000000, 1.000000000000000000 ) ) ;
#154 = CALENDAR_DATE ( 2022, 7, 7 ) ;
#155 = ORIENTED_EDGE ( 'NONE', *, *, #262, .F. ) ;
#156 = APPROVAL_PERSON_ORGANIZATION ( #301, #302, #37 ) ;
#157 = APPROVAL_DATE_TIME ( #54, #302 ) ;
#158 = CC_DESIGN_PERSON_AND_ORGANIZATION_ASSIGNMENT ( #104, #61, ( #44 ) ) ;
#159 = FACE_OUTER_BOUND ( 'NONE', #15, .T. ) ;
#160 = AXIS2_PLACEMENT_3D ( 'NONE', #171, #220, #7 ) ;
#161 = FACE_OUTER_BOUND ( 'NONE', #213, .T. ) ;
#162 = EDGE_CURVE ( 'NONE', #232, #89, #99, .T. ) ;
#163 = APPROVAL_STATUS ( 'not_yet_approved' ) ;
#164 = VERTEX_POINT ( 'NONE', #73 ) ;
#165 = CC_DESIGN_DATE_AND_TIME_ASSIGNMENT ( #109, #113, ( #292 ) ) ;
#166 = ORIENTED_EDGE ( 'NONE', *, *, #22, .F. ) ;
#167 = PRODUCT_RELATED_PRODUCT_CATEGORY ( 'detail', '', ( #44 ) ) ;
#168 = CARTESIAN_POINT ( 'NONE',  ( -3.000000000000000444, 0.000000000000000000, 3.000000000000000000 ) ) ;
#169 = DIRECTION ( 'NONE',  ( 0.000000000000000000, 0.000000000000000000, 1.000000000000000000 ) ) ;
#170 = DIRECTION ( 'NONE',  ( -0.000000000000000000, -0.000000000000000000, -1.000000000000000000 ) ) ;
#171 = CARTESIAN_POINT ( 'NONE',  ( 0.000000000000000000, 0.000000000000000000, 3.199999999999980638 ) ) ;
#172 = PERSON_AND_ORGANIZATION ( #47, #175 ) ;
#173 = CIRCLE ( 'NONE', #160, 1.500000000000000222 ) ;
#174 = CARTESIAN_POINT ( 'NONE',  ( 0.000000000000000000, 0.000000000000000000, 3.000000000000000000 ) ) ;
#175 = ORGANIZATION ( 'NEURÈENÝ', 'NEURÈENÝ', '' ) ;
#176 =( NAMED_UNIT ( * ) SI_UNIT ( $, .STERADIAN. ) SOLID_ANGLE_UNIT ( ) );
#177 = APPROVAL_ROLE ( '' ) ;
#178 = DATE_AND_TIME ( #154, #266 ) ;
#179 = EDGE_CURVE ( 'NONE', #35, #140, #283, .T. ) ;
#180 = CC_DESIGN_SECURITY_CLASSIFICATION ( #292, ( #3 ) ) ;
#181 = CARTESIAN_POINT ( 'NONE',  ( 0.000000000000000000, 0.000000000000000000, 3.000000000000000000 ) ) ;
#182 = SECURITY_CLASSIFICATION_LEVEL ( 'unclassified' ) ;
#183 = FACE_OUTER_BOUND ( 'NONE', #62, .T. ) ;
#184 = DIRECTION ( 'NONE',  ( -0.000000000000000000, -0.000000000000000000, -1.000000000000000000 ) ) ;
#185 = VECTOR ( 'NONE', #28, 1000.000000000000000 ) ;
#186 = ORIENTED_EDGE ( 'NONE', *, *, #103, .T. ) ;
#187 = CYLINDRICAL_SURFACE ( 'NONE', #95, 1.500000000000000222 ) ;
#188 = CARTESIAN_POINT ( 'NONE',  ( 0.000000000000000000, 0.000000000000000000, 0.000000000000000000 ) ) ;
#189 = AXIS2_PLACEMENT_3D ( 'NONE', #267, #97, #118 ) ;
#190 = DIRECTION ( 'NONE',  ( 0.000000000000000000, -1.000000000000000000, 0.000000000000000000 ) ) ;
#191 = PLANE ( 'NONE',  #287 ) ;
#192 = CARTESIAN_POINT ( 'NONE',  ( -1.500000000000000222, 0.000000000000000000, 633.0000000000000000 ) ) ;
#193 =( NAMED_UNIT ( * ) PLANE_ANGLE_UNIT ( ) SI_UNIT ( $, .RADIAN. ) );
#194 = ADVANCED_FACE ( 'NONE', ( #9, #148 ), #272, .T. ) ;
#195 = APPROVAL_STATUS ( 'not_yet_approved' ) ;
#196 = VERTEX_POINT ( 'NONE', #192 ) ;
#197 = DIRECTION ( 'NONE',  ( 1.000000000000000000, 0.000000000000000000, 0.000000000000000000 ) ) ;
#198 = DIRECTION ( 'NONE',  ( -0.000000000000000000, -0.000000000000000000, -1.000000000000000000 ) ) ;
#199 = AXIS2_PLACEMENT_3D ( 'NONE', #269, #169, #143 ) ;
#200 = ADVANCED_FACE ( 'NONE', ( #11 ), #187, .T. ) ;
#201 = VERTEX_POINT ( 'NONE', #298 ) ;
#202 = AXIS2_PLACEMENT_3D ( 'NONE', #65, #236, #24 ) ;
#203 = PERSON_AND_ORGANIZATION ( #47, #175 ) ;
#204 = TOROIDAL_SURFACE ( 'NONE', #12, 1.700000000000000400, 0.2000000000000000111 ) ;
#205 = PERSON_AND_ORGANIZATION ( #47, #175 ) ;
#206 = DIRECTION ( 'NONE',  ( 0.000000000000000000, 0.000000000000000000, 1.000000000000000000 ) ) ;
#207 = COORDINATED_UNIVERSAL_TIME_OFFSET ( 1, 0, .AHEAD. ) ;
#208 = FACE_OUTER_BOUND ( 'NONE', #17, .T. ) ;
#209 = CC_DESIGN_APPROVAL ( #133, ( #13 ) ) ;
#210 = APPROVAL_DATE_TIME ( #234, #257 ) ;
#211 = EDGE_LOOP ( 'NONE', ( #253, #46 ) ) ;
#212 = ADVANCED_FACE ( 'NONE', ( #242 ), #204, .F. ) ;
#213 = EDGE_LOOP ( 'NONE', ( #58, #127 ) ) ;
#214 = CC_DESIGN_PERSON_AND_ORGANIZATION_ASSIGNMENT ( #205, #259, ( #292 ) ) ;
#215 = LINE ( 'NONE', #168, #185 ) ;
#216 = VECTOR ( 'NONE', #119, 1000.000000000000000 ) ;
#217 = DIRECTION ( 'NONE',  ( 1.000000000000000000, 0.000000000000000000, -0.000000000000000000 ) ) ;
#218 = EDGE_CURVE ( 'NONE', #89, #232, #72, .T. ) ;
#219 = CIRCLE ( 'NONE', #86, 1.700000000000000400 ) ;
#220 = DIRECTION ( 'NONE',  ( 0.000000000000000000, 0.000000000000000000, 1.000000000000000000 ) ) ;
#221 = CARTESIAN_POINT ( 'NONE',  ( 3.000000000000000444, 3.673940397442060361E-16, 0.000000000000000000 ) ) ;
#222 = CARTESIAN_POINT ( 'NONE',  ( -1.700000000000000400, 2.081899558550500773E-16, 3.199999999999980638 ) ) ;
#223 = APPROVAL_DATE_TIME ( #34, #133 ) ;
#224 = ORIENTED_EDGE ( 'NONE', *, *, #88, .F. ) ;
#225 = COORDINATED_UNIVERSAL_TIME_OFFSET ( 1, 0, .AHEAD. ) ;
#226 = MECHANICAL_CONTEXT ( 'NONE', #23, 'mechanical' ) ;
#227 = ORIENTED_EDGE ( 'NONE', *, *, #218, .T. ) ;
#228 = EDGE_CURVE ( 'NONE', #201, #129, #42, .T. ) ;
#229 = ORIENTED_EDGE ( 'NONE', *, *, #162, .T. ) ;
#230 = COORDINATED_UNIVERSAL_TIME_OFFSET ( 1, 0, .AHEAD. ) ;
#231 = EDGE_CURVE ( 'NONE', #201, #232, #215, .T. ) ;
#232 = VERTEX_POINT ( 'NONE', #96 ) ;
#233 = CYLINDRICAL_SURFACE ( 'NONE', #202, 3.000000000000000444 ) ;
#234 = DATE_AND_TIME ( #263, #146 ) ;
#235 = DIRECTION ( 'NONE',  ( -0.000000000000000000, -0.000000000000000000, -1.000000000000000000 ) ) ;
#236 = DIRECTION ( 'NONE',  ( -0.000000000000000000, -0.000000000000000000, -1.000000000000000000 ) ) ;
#237 = LOCAL_TIME ( 12, 30, 30.00000000000000000, #207 ) ;
#238 = ORIENTED_EDGE ( 'NONE', *, *, #142, .T. ) ;
#239 = DIRECTION ( 'NONE',  ( -0.000000000000000000, -0.000000000000000000, -1.000000000000000000 ) ) ;
#240 = CIRCLE ( 'NONE', #276, 1.500000000000000222 ) ;
#241 = CC_DESIGN_PERSON_AND_ORGANIZATION_ASSIGNMENT ( #254, #77, ( #3 ) ) ;
#242 = FACE_OUTER_BOUND ( 'NONE', #125, .T. ) ;
#243 = DIRECTION ( 'NONE',  ( 0.000000000000000000, 0.000000000000000000, 1.000000000000000000 ) ) ;
#244 = CARTESIAN_POINT ( 'NONE',  ( 0.000000000000000000, 0.000000000000000000, 3.199999999999980638 ) ) ;
#245 = ADVANCED_BREP_SHAPE_REPRESENTATION ( '3460', ( #130, #306 ), #92 ) ;
#246 = AXIS2_PLACEMENT_3D ( 'NONE', #98, #170, #121 ) ;
#247 = PERSON_AND_ORGANIZATION ( #47, #175 ) ;
#248 = ORIENTED_EDGE ( 'NONE', *, *, #137, .F. ) ;
#249 = AXIS2_PLACEMENT_3D ( 'NONE', #29, #291, #70 ) ;
#250 = LINE ( 'NONE', #31, #52 ) ;
#251 = ORIENTED_EDGE ( 'NONE', *, *, #179, .T. ) ;
#252 = APPROVAL_STATUS ( 'not_yet_approved' ) ;
#253 = ORIENTED_EDGE ( 'NONE', *, *, #228, .T. ) ;
#254 = PERSON_AND_ORGANIZATION ( #47, #175 ) ;
#255 = CYLINDRICAL_SURFACE ( 'NONE', #274, 1.500000000000000222 ) ;
#256 = AXIS2_PLACEMENT_3D ( 'NONE', #43, #184, #83 ) ;
#257 = APPROVAL ( #163, 'NEURÈENÝ' ) ;
#258 = CARTESIAN_POINT ( 'NONE',  ( 0.000000000000000000, 0.000000000000000000, 633.0000000000000000 ) ) ;
#259 = PERSON_AND_ORGANIZATION_ROLE ( 'classification_officer' ) ;
#260 = DESIGN_CONTEXT ( 'detailed design', #101, 'design' ) ;
#261 = DIRECTION ( 'NONE',  ( 0.000000000000000000, 0.000000000000000000, 1.000000000000000000 ) ) ;
#262 = EDGE_CURVE ( 'NONE', #164, #25, #112, .T. ) ;
#263 = CALENDAR_DATE ( 2022, 7, 7 ) ;
#264 = CLOSED_SHELL ( 'NONE', ( #212, #200, #64, #19, #194, #68, #8, #82, #299 ) ) ;
#265 = ORIENTED_EDGE ( 'NONE', *, *, #179, .F. ) ;
#266 = LOCAL_TIME ( 12, 30, 30.00000000000000000, #225 ) ;
#267 = CARTESIAN_POINT ( 'NONE',  ( 0.000000000000000000, 0.000000000000000000, 3.000000000000000000 ) ) ;
#268 = DIRECTION ( 'NONE',  ( -0.000000000000000000, -0.000000000000000000, -1.000000000000000000 ) ) ;
#269 = CARTESIAN_POINT ( 'NONE',  ( 0.000000000000000000, 0.000000000000000000, 633.0000000000000000 ) ) ;
#270 = APPROVAL_PERSON_ORGANIZATION ( #59, #133, #177 ) ;
#271 = LINE ( 'NONE', #5, #216 ) ;
#272 = PLANE ( 'NONE',  #33 ) ;
#273 = EDGE_CURVE ( 'NONE', #129, #89, #250, .T. ) ;
#274 = AXIS2_PLACEMENT_3D ( 'NONE', #40, #235, #45 ) ;
#275 = PERSON_AND_ORGANIZATION_ROLE ( 'creator' ) ;
#276 = AXIS2_PLACEMENT_3D ( 'NONE', #258, #261, #138 ) ;
#277 = DIRECTION ( 'NONE',  ( 0.000000000000000000, 0.000000000000000000, -1.000000000000000000 ) ) ;
#278 = ORIENTED_EDGE ( 'NONE', *, *, #228, .F. ) ;
#279 = ORIENTED_EDGE ( 'NONE', *, *, #273, .T. ) ;
#280 = CALENDAR_DATE ( 2022, 7, 7 ) ;
#281 = FACE_OUTER_BOUND ( 'NONE', #117, .T. ) ;
#282 = LOCAL_TIME ( 12, 30, 30.00000000000000000, #107 ) ;
#283 = CIRCLE ( 'NONE', #290, 0.2000000000000000944 ) ;
#284 = VERTEX_POINT ( 'NONE', #14 ) ;
#285 = APPROVAL_ROLE ( '' ) ;
#286 = DIRECTION ( 'NONE',  ( 0.000000000000000000, 0.000000000000000000, 1.000000000000000000 ) ) ;
#287 = AXIS2_PLACEMENT_3D ( 'NONE', #50, #123, #49 ) ;
#288 = SHAPE_DEFINITION_REPRESENTATION ( #80, #245 ) ;
#289 = DIRECTION ( 'NONE',  ( 1.000000000000000000, 0.000000000000000000, 0.000000000000000000 ) ) ;
#290 = AXIS2_PLACEMENT_3D ( 'NONE', #222, #296, #294 ) ;
#291 = DIRECTION ( 'NONE',  ( 0.000000000000000000, 0.000000000000000000, 1.000000000000000000 ) ) ;
#292 = SECURITY_CLASSIFICATION ( '', '', #182 ) ;
#293 = EDGE_CURVE ( 'NONE', #25, #140, #219, .T. ) ;
#294 = DIRECTION ( 'NONE',  ( -1.000000000000000000, 1.224646799147353207E-16, 0.000000000000000000 ) ) ;
#295 = AXIS2_PLACEMENT_3D ( 'NONE', #120, #190, #277 ) ;
#296 = DIRECTION ( 'NONE',  ( 1.224646799147353207E-16, 1.000000000000000000, -0.000000000000000000 ) ) ;
#297 = LINE ( 'NONE', #74, #145 ) ;
#298 = CARTESIAN_POINT ( 'NONE',  ( -3.000000000000000444, 0.000000000000000000, 3.000000000000000000 ) ) ;
#299 = ADVANCED_FACE ( 'NONE', ( #281 ), #152, .F. ) ;
#300 = CARTESIAN_POINT ( 'NONE',  ( 0.000000000000000000, 0.000000000000000000, 0.000000000000000000 ) ) ;
#301 = PERSON_AND_ORGANIZATION ( #47, #175 ) ;
#302 = APPROVAL ( #252, 'NEURÈENÝ' ) ;
#303 = CC_DESIGN_APPROVAL ( #302, ( #3 ) ) ;
#304 = CARTESIAN_POINT ( 'NONE',  ( 0.000000000000000000, 0.000000000000000000, 3.199999999999980638 ) ) ;
#305 = EDGE_LOOP ( 'NONE', ( #126, #278, #105, #229 ) ) ;
#306 = AXIS2_PLACEMENT_3D ( 'NONE', #300, #81, #16 ) ;
#307 = ORIENTED_EDGE ( 'NONE', *, *, #110, .F. ) ;
ENDSEC;
END-ISO-10303-21;
