ISO-10303-21;
HEADER;
FILE_DESCRIPTION (( 'STEP AP203' ),
    '1' );
FILE_NAME ('96f0.STEP',
    '2022-07-07T10:24:10',
    ( '' ),
    ( '' ),
    'SwSTEP 2.0',
    'SolidWorks 2019',
    '' );
FILE_SCHEMA (( 'CONFIG_CONTROL_DESIGN' ));
ENDSEC;

DATA;
#1 = VERTEX_POINT ( 'NONE', #189 ) ;
#2 = DIRECTION ( 'NONE',  ( -0.000000000000000000, -0.000000000000000000, -1.000000000000000000 ) ) ;
#3 = AXIS2_PLACEMENT_3D ( 'NONE', #294, #167, #270 ) ;
#4 = APPROVAL ( #60, 'NEURÈENÝ' ) ;
#5 = CARTESIAN_POINT ( 'NONE',  ( -2.300000000000000266, 2.816687638038912549E-16, 3.000000000000004441 ) ) ;
#6 = CARTESIAN_POINT ( 'NONE',  ( 0.000000000000000000, 0.000000000000000000, 0.000000000000000000 ) ) ;
#7 = AXIS2_PLACEMENT_3D ( 'NONE', #92, #55, #77 ) ;
#8 = CARTESIAN_POINT ( 'NONE',  ( 0.000000000000000000, 0.000000000000000000, 3.200000000000008171 ) ) ;
#9 = DIRECTION ( 'NONE',  ( -0.000000000000000000, -0.000000000000000000, -1.000000000000000000 ) ) ;
#10 = CYLINDRICAL_SURFACE ( 'NONE', #110, 2.100000000000000089 ) ;
#11 = DIRECTION ( 'NONE',  ( 1.000000000000000000, 0.000000000000000000, 0.000000000000000000 ) ) ;
#12 = DIRECTION ( 'NONE',  ( -0.000000000000000000, -0.000000000000000000, -1.000000000000000000 ) ) ;
#13 = DATE_AND_TIME ( #98, #158 ) ;
#14 = EDGE_LOOP ( 'NONE', ( #274, #65 ) ) ;
#15 = COORDINATED_UNIVERSAL_TIME_OFFSET ( 1, 0, .AHEAD. ) ;
#16 = APPROVAL_PERSON_ORGANIZATION ( #36, #291, #201 ) ;
#17 = CALENDAR_DATE ( 2022, 7, 7 ) ;
#18 = ORIENTED_EDGE ( 'NONE', *, *, #44, .F. ) ;
#19 = EDGE_LOOP ( 'NONE', ( #83, #111 ) ) ;
#20 = CARTESIAN_POINT ( 'NONE',  ( 2.300000000000000266, 0.000000000000000000, 3.000000000000004441 ) ) ;
#21 = VERTEX_POINT ( 'NONE', #109 ) ;
#22 = APPLICATION_CONTEXT ( 'configuration controlled 3d designs of mechanical parts and assemblies' ) ;
#23 = ORIENTED_EDGE ( 'NONE', *, *, #279, .T. ) ;
#24 = ADVANCED_FACE ( 'NONE', ( #155, #184 ), #90, .T. ) ;
#25 = CARTESIAN_POINT ( 'NONE',  ( 4.000000000000000000, 4.898587196589412829E-16, 0.000000000000000000 ) ) ;
#26 = DIRECTION ( 'NONE',  ( 0.000000000000000000, 0.000000000000000000, 1.000000000000000000 ) ) ;
#27 = DIRECTION ( 'NONE',  ( 1.000000000000000000, 0.000000000000000000, 0.000000000000000000 ) ) ;
#28 = MANIFOLD_SOLID_BREP ( 'Zaoblit1', #37 ) ;
#29 = AXIS2_PLACEMENT_3D ( 'NONE', #290, #170, #288 ) ;
#30 = TOROIDAL_SURFACE ( 'NONE', #141, 2.300000000000000266, 0.2000000000000000111 ) ;
#31 = CARTESIAN_POINT ( 'NONE',  ( 0.000000000000000000, 0.000000000000000000, 3.000000000000000000 ) ) ;
#32 = CARTESIAN_POINT ( 'NONE',  ( -4.000000000000000000, 0.000000000000000000, 3.000000000000000000 ) ) ;
#33 = DIRECTION ( 'NONE',  ( -0.000000000000000000, -0.000000000000000000, -1.000000000000000000 ) ) ;
#34 = LOCAL_TIME ( 12, 24, 10.00000000000000000, #303 ) ;
#35 = VECTOR ( 'NONE', #236, 1000.000000000000000 ) ;
#36 = PERSON_AND_ORGANIZATION ( #160, #299 ) ;
#37 = CLOSED_SHELL ( 'NONE', ( #156, #276, #267, #261, #24, #57, #227, #301, #163 ) ) ;
#38 = EDGE_LOOP ( 'NONE', ( #161, #229 ) ) ;
#39 = PERSON_AND_ORGANIZATION_ROLE ( 'classification_officer' ) ;
#40 = ORIENTED_EDGE ( 'NONE', *, *, #145, .T. ) ;
#41 = PERSON_AND_ORGANIZATION ( #160, #299 ) ;
#42 = PERSON_AND_ORGANIZATION ( #160, #299 ) ;
#43 = VERTEX_POINT ( 'NONE', #282 ) ;
#44 = EDGE_CURVE ( 'NONE', #175, #102, #202, .T. ) ;
#45 = DIRECTION ( 'NONE',  ( -1.000000000000000000, 1.224646799147353207E-16, 0.000000000000000000 ) ) ;
#46 = EDGE_LOOP ( 'NONE', ( #164, #302, #226, #69 ) ) ;
#47 = CARTESIAN_POINT ( 'NONE',  ( 0.000000000000000000, 0.000000000000000000, 3.000000000000000000 ) ) ;
#48 = SHAPE_DEFINITION_REPRESENTATION ( #259, #143 ) ;
#49 = DIRECTION ( 'NONE',  ( 0.000000000000000000, 0.000000000000000000, 1.000000000000000000 ) ) ;
#50 = AXIS2_PLACEMENT_3D ( 'NONE', #292, #75, #169 ) ;
#51 = ORIENTED_EDGE ( 'NONE', *, *, #84, .F. ) ;
#52 = DIRECTION ( 'NONE',  ( 0.000000000000000000, 0.000000000000000000, 1.000000000000000000 ) ) ;
#53 = UNCERTAINTY_MEASURE_WITH_UNIT (LENGTH_MEASURE( 1.000000000000000082E-05 ), #204, 'distance_accuracy_value', 'NONE');
#54 = CARTESIAN_POINT ( 'NONE',  ( 0.000000000000000000, 0.000000000000000000, 0.000000000000000000 ) ) ;
#55 = DIRECTION ( 'NONE',  ( 0.000000000000000000, 0.000000000000000000, 1.000000000000000000 ) ) ;
#56 = FACE_OUTER_BOUND ( 'NONE', #104, .T. ) ;
#57 = ADVANCED_FACE ( 'NONE', ( #235 ), #137, .F. ) ;
#58 = DATE_AND_TIME ( #277, #131 ) ;
#59 = APPROVAL_PERSON_ORGANIZATION ( #101, #4, #80 ) ;
#60 = APPROVAL_STATUS ( 'not_yet_approved' ) ;
#61 = APPROVAL_STATUS ( 'not_yet_approved' ) ;
#62 = CARTESIAN_POINT ( 'NONE',  ( 0.000000000000000000, 0.000000000000000000, 0.000000000000000000 ) ) ;
#63 = ORIENTED_EDGE ( 'NONE', *, *, #44, .T. ) ;
#64 = CC_DESIGN_PERSON_AND_ORGANIZATION_ASSIGNMENT ( #198, #249, ( #212 ) ) ;
#65 = ORIENTED_EDGE ( 'NONE', *, *, #84, .T. ) ;
#66 =( GEOMETRIC_REPRESENTATION_CONTEXT ( 3 ) GLOBAL_UNCERTAINTY_ASSIGNED_CONTEXT ( ( #53 ) ) GLOBAL_UNIT_ASSIGNED_CONTEXT ( ( #204, #126, #123 ) ) REPRESENTATION_CONTEXT ( 'NONE', 'WORKASPACE' ) );
#67 = DIRECTION ( 'NONE',  ( 1.000000000000000000, 0.000000000000000000, -0.000000000000000000 ) ) ;
#68 = CARTESIAN_POINT ( 'NONE',  ( 2.100000000000000089, 2.571758278209441957E-16, 253.0000000000000000 ) ) ;
#69 = ORIENTED_EDGE ( 'NONE', *, *, #145, .F. ) ;
#70 = CIRCLE ( 'NONE', #247, 4.000000000000000000 ) ;
#71 = CARTESIAN_POINT ( 'NONE',  ( 0.000000000000000000, 0.000000000000000000, 253.0000000000000000 ) ) ;
#72 = CARTESIAN_POINT ( 'NONE',  ( -4.000000000000000000, 0.000000000000000000, 0.000000000000000000 ) ) ;
#73 = DIRECTION ( 'NONE',  ( 0.000000000000000000, 0.000000000000000000, 1.000000000000000000 ) ) ;
#74 = CC_DESIGN_APPROVAL ( #291, ( #293 ) ) ;
#75 = DIRECTION ( 'NONE',  ( 0.000000000000000000, -1.000000000000000000, 0.000000000000000000 ) ) ;
#76 = EDGE_CURVE ( 'NONE', #1, #43, #87, .T. ) ;
#77 = DIRECTION ( 'NONE',  ( 1.000000000000000000, 0.000000000000000000, 0.000000000000000000 ) ) ;
#78 = APPLICATION_PROTOCOL_DEFINITION ( 'international standard', 'config_control_design', 1994, #22 ) ;
#79 = CIRCLE ( 'NONE', #7, 2.100000000000000089 ) ;
#80 = APPROVAL_ROLE ( '' ) ;
#81 = PERSON_AND_ORGANIZATION_ROLE ( 'creator' ) ;
#82 = VERTEX_POINT ( 'NONE', #20 ) ;
#83 = ORIENTED_EDGE ( 'NONE', *, *, #76, .T. ) ;
#84 = EDGE_CURVE ( 'NONE', #102, #82, #263, .T. ) ;
#85 = EDGE_LOOP ( 'NONE', ( #306, #23 ) ) ;
#86 = CC_DESIGN_PERSON_AND_ORGANIZATION_ASSIGNMENT ( #41, #39, ( #293 ) ) ;
#87 = CIRCLE ( 'NONE', #237, 2.100000000000000089 ) ;
#88 = CARTESIAN_POINT ( 'NONE',  ( 0.000000000000000000, 0.000000000000000000, 3.000000000000000000 ) ) ;
#89 = ORIENTED_EDGE ( 'NONE', *, *, #186, .F. ) ;
#90 = PLANE ( 'NONE',  #196 ) ;
#91 = CARTESIAN_POINT ( 'NONE',  ( 0.000000000000000000, 0.000000000000000000, 253.0000000000000000 ) ) ;
#92 = CARTESIAN_POINT ( 'NONE',  ( 0.000000000000000000, 0.000000000000000000, 253.0000000000000000 ) ) ;
#93 = DIRECTION ( 'NONE',  ( -0.000000000000000000, -0.000000000000000000, -1.000000000000000000 ) ) ;
#94 = FACE_OUTER_BOUND ( 'NONE', #132, .T. ) ;
#95 = COORDINATED_UNIVERSAL_TIME_OFFSET ( 1, 0, .AHEAD. ) ;
#96 = DATE_AND_TIME ( #17, #34 ) ;
#97 = ORIENTED_EDGE ( 'NONE', *, *, #191, .F. ) ;
#98 = CALENDAR_DATE ( 2022, 7, 7 ) ;
#99 = CC_DESIGN_APPROVAL ( #4, ( #296 ) ) ;
#100 = ORIENTED_EDGE ( 'NONE', *, *, #136, .F. ) ;
#101 = PERSON_AND_ORGANIZATION ( #160, #299 ) ;
#102 = VERTEX_POINT ( 'NONE', #5 ) ;
#103 = CC_DESIGN_PERSON_AND_ORGANIZATION_ASSIGNMENT ( #180, #225, ( #230 ) ) ;
#104 = EDGE_LOOP ( 'NONE', ( #18, #106, #207, #51 ) ) ;
#105 = CARTESIAN_POINT ( 'NONE',  ( 0.000000000000000000, 0.000000000000000000, 3.000000000000000000 ) ) ;
#106 = ORIENTED_EDGE ( 'NONE', *, *, #234, .F. ) ;
#107 = CC_DESIGN_DATE_AND_TIME_ASSIGNMENT ( #128, #256, ( #293 ) ) ;
#108 = APPROVAL_DATE_TIME ( #188, #291 ) ;
#109 = CARTESIAN_POINT ( 'NONE',  ( 4.000000000000000000, 4.898587196589412829E-16, 3.000000000000000000 ) ) ;
#110 = AXIS2_PLACEMENT_3D ( 'NONE', #91, #93, #193 ) ;
#111 = ORIENTED_EDGE ( 'NONE', *, *, #208, .T. ) ;
#112 = EDGE_CURVE ( 'NONE', #82, #102, #192, .T. ) ;
#113 = ORIENTED_EDGE ( 'NONE', *, *, #279, .F. ) ;
#114 = FACE_OUTER_BOUND ( 'NONE', #46, .T. ) ;
#115 = AXIS2_PLACEMENT_3D ( 'NONE', #71, #268, #254 ) ;
#116 = VECTOR ( 'NONE', #162, 1000.000000000000000 ) ;
#117 = DIRECTION ( 'NONE',  ( 0.000000000000000000, 0.000000000000000000, 1.000000000000000000 ) ) ;
#118 = CYLINDRICAL_SURFACE ( 'NONE', #221, 4.000000000000000000 ) ;
#119 = DIRECTION ( 'NONE',  ( 1.000000000000000000, 0.000000000000000000, 0.000000000000000000 ) ) ;
#120 = AXIS2_PLACEMENT_3D ( 'NONE', #54, #52, #27 ) ;
#121 = CARTESIAN_POINT ( 'NONE',  ( -4.000000000000000000, 0.000000000000000000, 3.000000000000000000 ) ) ;
#122 = AXIS2_PLACEMENT_3D ( 'NONE', #284, #266, #45 ) ;
#123 =( NAMED_UNIT ( * ) SI_UNIT ( $, .STERADIAN. ) SOLID_ANGLE_UNIT ( ) );
#124 = EDGE_CURVE ( 'NONE', #43, #250, #283, .T. ) ;
#125 = ORIENTED_EDGE ( 'NONE', *, *, #171, .F. ) ;
#126 =( NAMED_UNIT ( * ) PLANE_ANGLE_UNIT ( ) SI_UNIT ( $, .RADIAN. ) );
#127 = EDGE_LOOP ( 'NONE', ( #298, #133, #40, #203 ) ) ;
#128 = DATE_AND_TIME ( #248, #140 ) ;
#129 = APPROVAL_ROLE ( '' ) ;
#130 = DIRECTION ( 'NONE',  ( 0.000000000000000000, 0.000000000000000000, 1.000000000000000000 ) ) ;
#131 = LOCAL_TIME ( 12, 24, 10.00000000000000000, #15 ) ;
#132 = EDGE_LOOP ( 'NONE', ( #113, #232, #224, #97 ) ) ;
#133 = ORIENTED_EDGE ( 'NONE', *, *, #76, .F. ) ;
#134 = LINE ( 'NONE', #307, #35 ) ;
#135 = CIRCLE ( 'NONE', #304, 2.100000000000000089 ) ;
#136 = EDGE_CURVE ( 'NONE', #257, #21, #159, .T. ) ;
#137 = PLANE ( 'NONE',  #286 ) ;
#138 = LINE ( 'NONE', #32, #173 ) ;
#139 = CARTESIAN_POINT ( 'NONE',  ( -2.100000000000000089, 0.000000000000000000, 3.200000000000008171 ) ) ;
#140 = LOCAL_TIME ( 12, 24, 10.00000000000000000, #154 ) ;
#141 = AXIS2_PLACEMENT_3D ( 'NONE', #269, #144, #119 ) ;
#142 = LINE ( 'NONE', #218, #253 ) ;
#143 = ADVANCED_BREP_SHAPE_REPRESENTATION ( '96f0', ( #28, #181 ), #66 ) ;
#144 = DIRECTION ( 'NONE',  ( 0.000000000000000000, 0.000000000000000000, 1.000000000000000000 ) ) ;
#145 = EDGE_CURVE ( 'NONE', #1, #175, #134, .T. ) ;
#146 = COORDINATED_UNIVERSAL_TIME_OFFSET ( 1, 0, .AHEAD. ) ;
#147 = APPROVAL_DATE_TIME ( #96, #4 ) ;
#148 = APPLICATION_PROTOCOL_DEFINITION ( 'international standard', 'config_control_design', 1994, #251 ) ;
#149 = AXIS2_PLACEMENT_3D ( 'NONE', #245, #117, #165 ) ;
#150 = VERTEX_POINT ( 'NONE', #25 ) ;
#151 = EDGE_CURVE ( 'NONE', #150, #252, #70, .T. ) ;
#152 = SECURITY_CLASSIFICATION_LEVEL ( 'unclassified' ) ;
#153 = AXIS2_PLACEMENT_3D ( 'NONE', #31, #12, #166 ) ;
#154 = COORDINATED_UNIVERSAL_TIME_OFFSET ( 1, 0, .AHEAD. ) ;
#155 = FACE_BOUND ( 'NONE', #14, .T. ) ;
#156 = ADVANCED_FACE ( 'NONE', ( #246 ), #30, .F. ) ;
#157 = DIRECTION ( 'NONE',  ( 1.000000000000000000, 0.000000000000000000, 0.000000000000000000 ) ) ;
#158 = LOCAL_TIME ( 12, 24, 10.00000000000000000, #146 ) ;
#159 = CIRCLE ( 'NONE', #243, 4.000000000000000000 ) ;
#160 = PERSON ( 'NEURÈENÝ', 'NEURÈENÝ', 'NEURÈENÝ', ('NEURÈENÝ'), ('NEURÈENÝ'), ('NEURÈENÝ') ) ;
#161 = ORIENTED_EDGE ( 'NONE', *, *, #176, .F. ) ;
#162 = DIRECTION ( 'NONE',  ( -0.000000000000000000, -0.000000000000000000, -1.000000000000000000 ) ) ;
#163 = ADVANCED_FACE ( 'NONE', ( #56 ), #271, .F. ) ;
#164 = ORIENTED_EDGE ( 'NONE', *, *, #208, .F. ) ;
#165 = DIRECTION ( 'NONE',  ( 1.000000000000000000, 0.000000000000000000, 0.000000000000000000 ) ) ;
#166 = DIRECTION ( 'NONE',  ( -1.000000000000000000, 0.000000000000000000, 0.000000000000000000 ) ) ;
#167 = DIRECTION ( 'NONE',  ( 0.000000000000000000, 0.000000000000000000, 1.000000000000000000 ) ) ;
#168 = CIRCLE ( 'NONE', #149, 2.100000000000000089 ) ;
#169 = DIRECTION ( 'NONE',  ( 0.000000000000000000, 0.000000000000000000, -1.000000000000000000 ) ) ;
#170 = DIRECTION ( 'NONE',  ( -0.000000000000000000, -0.000000000000000000, -1.000000000000000000 ) ) ;
#171 = EDGE_CURVE ( 'NONE', #175, #250, #168, .T. ) ;
#172 = CALENDAR_DATE ( 2022, 7, 7 ) ;
#173 = VECTOR ( 'NONE', #33, 1000.000000000000000 ) ;
#174 = DIRECTION ( 'NONE',  ( 0.000000000000000000, 0.000000000000000000, 1.000000000000000000 ) ) ;
#175 = VERTEX_POINT ( 'NONE', #139 ) ;
#176 = EDGE_CURVE ( 'NONE', #252, #150, #178, .T. ) ;
#177 = DIRECTION ( 'NONE',  ( 1.000000000000000000, 0.000000000000000000, 0.000000000000000000 ) ) ;
#178 = CIRCLE ( 'NONE', #120, 4.000000000000000000 ) ;
#179 = PERSON_AND_ORGANIZATION ( #160, #299 ) ;
#180 = PERSON_AND_ORGANIZATION ( #160, #299 ) ;
#181 = AXIS2_PLACEMENT_3D ( 'NONE', #62, #174, #177 ) ;
#182 = APPROVAL ( #61, 'NEURÈENÝ' ) ;
#183 = DIRECTION ( 'NONE',  ( 1.000000000000000000, 0.000000000000000000, 0.000000000000000000 ) ) ;
#184 = FACE_OUTER_BOUND ( 'NONE', #85, .T. ) ;
#185 = CC_DESIGN_SECURITY_CLASSIFICATION ( #293, ( #212 ) ) ;
#186 = EDGE_CURVE ( 'NONE', #21, #150, #142, .T. ) ;
#187 = DIRECTION ( 'NONE',  ( -0.000000000000000000, -0.000000000000000000, -1.000000000000000000 ) ) ;
#188 = DATE_AND_TIME ( #172, #206 ) ;
#189 = CARTESIAN_POINT ( 'NONE',  ( -2.100000000000000089, 0.000000000000000000, 253.0000000000000000 ) ) ;
#190 = DIRECTION ( 'NONE',  ( 0.000000000000000000, 0.000000000000000000, 1.000000000000000000 ) ) ;
#191 = EDGE_CURVE ( 'NONE', #257, #252, #138, .T. ) ;
#192 = CIRCLE ( 'NONE', #305, 2.300000000000000266 ) ;
#193 = DIRECTION ( 'NONE',  ( -1.000000000000000000, 0.000000000000000000, 0.000000000000000000 ) ) ;
#194 = CYLINDRICAL_SURFACE ( 'NONE', #29, 2.100000000000000089 ) ;
#195 = CARTESIAN_POINT ( 'NONE',  ( 0.000000000000000000, 0.000000000000000000, 3.000000000000000000 ) ) ;
#196 = AXIS2_PLACEMENT_3D ( 'NONE', #105, #26, #258 ) ;
#197 = DIRECTION ( 'NONE',  ( 1.000000000000000000, 0.000000000000000000, 0.000000000000000000 ) ) ;
#198 = PERSON_AND_ORGANIZATION ( #160, #299 ) ;
#199 = ORIENTED_EDGE ( 'NONE', *, *, #112, .F. ) ;
#200 = CC_DESIGN_APPROVAL ( #182, ( #212 ) ) ;
#201 = APPROVAL_ROLE ( '' ) ;
#202 = CIRCLE ( 'NONE', #122, 0.2000000000000000944 ) ;
#203 = ORIENTED_EDGE ( 'NONE', *, *, #171, .T. ) ;
#204 =( LENGTH_UNIT ( ) NAMED_UNIT ( * ) SI_UNIT ( .MILLI., .METRE. ) );
#205 = DATE_TIME_ROLE ( 'creation_date' ) ;
#206 = LOCAL_TIME ( 12, 24, 10.00000000000000000, #95 ) ;
#207 = ORIENTED_EDGE ( 'NONE', *, *, #289, .T. ) ;
#208 = EDGE_CURVE ( 'NONE', #43, #1, #79, .T. ) ;
#209 = DIRECTION ( 'NONE',  ( 1.000000000000000000, 0.000000000000000000, 0.000000000000000000 ) ) ;
#210 = EDGE_LOOP ( 'NONE', ( #125, #63, #199, #278 ) ) ;
#211 = DIRECTION ( 'NONE',  ( 0.000000000000000000, 0.000000000000000000, 1.000000000000000000 ) ) ;
#212 = PRODUCT_DEFINITION_FORMATION_WITH_SPECIFIED_SOURCE ( 'LIBOVOLNÝ', '', #230, .NOT_KNOWN. ) ;
#213 = CARTESIAN_POINT ( 'NONE',  ( 0.000000000000000000, 0.000000000000000000, 0.000000000000000000 ) ) ;
#214 = DIRECTION ( 'NONE',  ( 1.000000000000000000, 0.000000000000000000, 0.000000000000000000 ) ) ;
#215 = CARTESIAN_POINT ( 'NONE',  ( 0.000000000000000000, 0.000000000000000000, 3.000000000000000000 ) ) ;
#216 = CC_DESIGN_PERSON_AND_ORGANIZATION_ASSIGNMENT ( #179, #81, ( #212 ) ) ;
#217 = AXIS2_PLACEMENT_3D ( 'NONE', #47, #2, #238 ) ;
#218 = CARTESIAN_POINT ( 'NONE',  ( 4.000000000000000000, 4.898587196589412829E-16, 3.000000000000000000 ) ) ;
#219 = DIRECTION ( 'NONE',  ( -1.000000000000000000, 0.000000000000000000, 0.000000000000000000 ) ) ;
#220 = FACE_OUTER_BOUND ( 'NONE', #127, .T. ) ;
#221 = AXIS2_PLACEMENT_3D ( 'NONE', #195, #273, #219 ) ;
#222 = CYLINDRICAL_SURFACE ( 'NONE', #153, 4.000000000000000000 ) ;
#223 = PERSON_AND_ORGANIZATION_ROLE ( 'creator' ) ;
#224 = ORIENTED_EDGE ( 'NONE', *, *, #151, .T. ) ;
#225 = PERSON_AND_ORGANIZATION_ROLE ( 'design_owner' ) ;
#226 = ORIENTED_EDGE ( 'NONE', *, *, #234, .T. ) ;
#227 = ADVANCED_FACE ( 'NONE', ( #220 ), #194, .T. ) ;
#228 = APPROVAL_STATUS ( 'not_yet_approved' ) ;
#229 = ORIENTED_EDGE ( 'NONE', *, *, #151, .F. ) ;
#230 = PRODUCT ( '96f0', '96f0', '', ( #297 ) ) ;
#231 = AXIS2_PLACEMENT_3D ( 'NONE', #215, #190, #197 ) ;
#232 = ORIENTED_EDGE ( 'NONE', *, *, #186, .T. ) ;
#233 = ORIENTED_EDGE ( 'NONE', *, *, #191, .T. ) ;
#234 = EDGE_CURVE ( 'NONE', #250, #175, #135, .T. ) ;
#235 = FACE_OUTER_BOUND ( 'NONE', #38, .T. ) ;
#236 = DIRECTION ( 'NONE',  ( -0.000000000000000000, -0.000000000000000000, -1.000000000000000000 ) ) ;
#237 = AXIS2_PLACEMENT_3D ( 'NONE', #264, #130, #183 ) ;
#238 = DIRECTION ( 'NONE',  ( 1.000000000000000000, 0.000000000000000000, 0.000000000000000000 ) ) ;
#239 = CC_DESIGN_DATE_AND_TIME_ASSIGNMENT ( #58, #205, ( #296 ) ) ;
#240 = FACE_OUTER_BOUND ( 'NONE', #262, .T. ) ;
#241 = DESIGN_CONTEXT ( 'detailed design', #22, 'design' ) ;
#242 = CIRCLE ( 'NONE', #231, 4.000000000000000000 ) ;
#243 = AXIS2_PLACEMENT_3D ( 'NONE', #265, #49, #214 ) ;
#244 = CARTESIAN_POINT ( 'NONE',  ( 2.100000000000000089, 2.571758278209441957E-16, 3.200000000000008171 ) ) ;
#245 = CARTESIAN_POINT ( 'NONE',  ( 0.000000000000000000, 0.000000000000000000, 3.200000000000008171 ) ) ;
#246 = FACE_OUTER_BOUND ( 'NONE', #210, .T. ) ;
#247 = AXIS2_PLACEMENT_3D ( 'NONE', #6, #280, #157 ) ;
#248 = CALENDAR_DATE ( 2022, 7, 7 ) ;
#249 = PERSON_AND_ORGANIZATION_ROLE ( 'design_supplier' ) ;
#250 = VERTEX_POINT ( 'NONE', #244 ) ;
#251 = APPLICATION_CONTEXT ( 'configuration controlled 3d designs of mechanical parts and assemblies' ) ;
#252 = VERTEX_POINT ( 'NONE', #72 ) ;
#253 = VECTOR ( 'NONE', #9, 1000.000000000000000 ) ;
#254 = DIRECTION ( 'NONE',  ( 1.000000000000000000, 0.000000000000000000, -0.000000000000000000 ) ) ;
#255 = CC_DESIGN_PERSON_AND_ORGANIZATION_ASSIGNMENT ( #42, #223, ( #296 ) ) ;
#256 = DATE_TIME_ROLE ( 'classification_date' ) ;
#257 = VERTEX_POINT ( 'NONE', #121 ) ;
#258 = DIRECTION ( 'NONE',  ( 1.000000000000000000, 0.000000000000000000, -0.000000000000000000 ) ) ;
#259 = PRODUCT_DEFINITION_SHAPE ( 'NONE', 'NONE',  #296 ) ;
#260 = CIRCLE ( 'NONE', #50, 0.2000000000000000944 ) ;
#261 = ADVANCED_FACE ( 'NONE', ( #240 ), #222, .T. ) ;
#262 = EDGE_LOOP ( 'NONE', ( #89, #100, #233, #275 ) ) ;
#263 = CIRCLE ( 'NONE', #217, 2.300000000000000266 ) ;
#264 = CARTESIAN_POINT ( 'NONE',  ( 0.000000000000000000, 0.000000000000000000, 253.0000000000000000 ) ) ;
#265 = CARTESIAN_POINT ( 'NONE',  ( 0.000000000000000000, 0.000000000000000000, 3.000000000000000000 ) ) ;
#266 = DIRECTION ( 'NONE',  ( 1.224646799147353207E-16, 1.000000000000000000, -0.000000000000000000 ) ) ;
#267 = ADVANCED_FACE ( 'NONE', ( #94 ), #118, .T. ) ;
#268 = DIRECTION ( 'NONE',  ( 0.000000000000000000, 0.000000000000000000, 1.000000000000000000 ) ) ;
#269 = CARTESIAN_POINT ( 'NONE',  ( 0.000000000000000000, 0.000000000000000000, 3.200000000000008171 ) ) ;
#270 = DIRECTION ( 'NONE',  ( 1.000000000000000000, 0.000000000000000000, 0.000000000000000000 ) ) ;
#271 = TOROIDAL_SURFACE ( 'NONE', #3, 2.300000000000000266, 0.2000000000000000111 ) ;
#272 = PLANE ( 'NONE',  #115 ) ;
#273 = DIRECTION ( 'NONE',  ( -0.000000000000000000, -0.000000000000000000, -1.000000000000000000 ) ) ;
#274 = ORIENTED_EDGE ( 'NONE', *, *, #112, .T. ) ;
#275 = ORIENTED_EDGE ( 'NONE', *, *, #176, .T. ) ;
#276 = ADVANCED_FACE ( 'NONE', ( #114 ), #10, .T. ) ;
#277 = CALENDAR_DATE ( 2022, 7, 7 ) ;
#278 = ORIENTED_EDGE ( 'NONE', *, *, #289, .F. ) ;
#279 = EDGE_CURVE ( 'NONE', #21, #257, #242, .T. ) ;
#280 = DIRECTION ( 'NONE',  ( 0.000000000000000000, 0.000000000000000000, 1.000000000000000000 ) ) ;
#281 = APPROVAL_PERSON_ORGANIZATION ( #300, #182, #129 ) ;
#282 = CARTESIAN_POINT ( 'NONE',  ( 2.100000000000000089, 2.571758278209441957E-16, 253.0000000000000000 ) ) ;
#283 = LINE ( 'NONE', #68, #116 ) ;
#284 = CARTESIAN_POINT ( 'NONE',  ( -2.300000000000000266, 2.816687638038912549E-16, 3.200000000000008171 ) ) ;
#285 = FACE_OUTER_BOUND ( 'NONE', #19, .T. ) ;
#286 = AXIS2_PLACEMENT_3D ( 'NONE', #213, #211, #67 ) ;
#287 = PRODUCT_RELATED_PRODUCT_CATEGORY ( 'detail', '', ( #230 ) ) ;
#288 = DIRECTION ( 'NONE',  ( -1.000000000000000000, 0.000000000000000000, 0.000000000000000000 ) ) ;
#289 = EDGE_CURVE ( 'NONE', #250, #82, #260, .T. ) ;
#290 = CARTESIAN_POINT ( 'NONE',  ( 0.000000000000000000, 0.000000000000000000, 253.0000000000000000 ) ) ;
#291 = APPROVAL ( #228, 'NEURÈENÝ' ) ;
#292 = CARTESIAN_POINT ( 'NONE',  ( 2.300000000000000266, 0.000000000000000000, 3.200000000000008171 ) ) ;
#293 = SECURITY_CLASSIFICATION ( '', '', #152 ) ;
#294 = CARTESIAN_POINT ( 'NONE',  ( 0.000000000000000000, 0.000000000000000000, 3.200000000000008171 ) ) ;
#295 = APPROVAL_DATE_TIME ( #13, #182 ) ;
#296 = PRODUCT_DEFINITION ( 'NEZNÁMÝ', '', #212, #241 ) ;
#297 = MECHANICAL_CONTEXT ( 'NONE', #251, 'mechanical' ) ;
#298 = ORIENTED_EDGE ( 'NONE', *, *, #124, .F. ) ;
#299 = ORGANIZATION ( 'NEURÈENÝ', 'NEURÈENÝ', '' ) ;
#300 = PERSON_AND_ORGANIZATION ( #160, #299 ) ;
#301 = ADVANCED_FACE ( 'NONE', ( #285 ), #272, .T. ) ;
#302 = ORIENTED_EDGE ( 'NONE', *, *, #124, .T. ) ;
#303 = COORDINATED_UNIVERSAL_TIME_OFFSET ( 1, 0, .AHEAD. ) ;
#304 = AXIS2_PLACEMENT_3D ( 'NONE', #8, #73, #11 ) ;
#305 = AXIS2_PLACEMENT_3D ( 'NONE', #88, #187, #209 ) ;
#306 = ORIENTED_EDGE ( 'NONE', *, *, #136, .T. ) ;
#307 = CARTESIAN_POINT ( 'NONE',  ( -2.100000000000000089, 0.000000000000000000, 253.0000000000000000 ) ) ;
ENDSEC;
END-ISO-10303-21;
