ISO-10303-21;
HEADER;
FILE_DESCRIPTION (( 'STEP AP203' ),
    '1' );
FILE_NAME ('d352.STEP',
    '2022-07-07T09:42:00',
    ( '' ),
    ( '' ),
    'SwSTEP 2.0',
    'SolidWorks 2019',
    '' );
FILE_SCHEMA (( 'CONFIG_CONTROL_DESIGN' ));
ENDSEC;

DATA;
#1 = CYLINDRICAL_SURFACE ( 'NONE', #236, 9.000000000000000000 ) ;
#2 = CARTESIAN_POINT ( 'NONE',  ( 0.000000000000000000, 0.000000000000000000, 7.199999999999984190 ) ) ;
#3 = EDGE_CURVE ( 'NONE', #280, #256, #230, .T. ) ;
#4 = ORIENTED_EDGE ( 'NONE', *, *, #104, .T. ) ;
#5 = DIRECTION ( 'NONE',  ( 1.000000000000000000, 0.000000000000000000, 0.000000000000000000 ) ) ;
#6 = AXIS2_PLACEMENT_3D ( 'NONE', #240, #144, #9 ) ;
#7 = DIRECTION ( 'NONE',  ( 0.000000000000000000, 0.000000000000000000, 1.000000000000000000 ) ) ;
#8 = DIRECTION ( 'NONE',  ( -1.000000000000000000, 0.000000000000000000, 0.000000000000000000 ) ) ;
#9 = DIRECTION ( 'NONE',  ( -1.000000000000000000, 0.000000000000000000, 0.000000000000000000 ) ) ;
#10 = VECTOR ( 'NONE', #67, 1000.000000000000000 ) ;
#11 = CALENDAR_DATE ( 2022, 7, 7 ) ;
#12 = DIRECTION ( 'NONE',  ( 0.000000000000000000, 0.000000000000000000, 1.000000000000000000 ) ) ;
#13 = CALENDAR_DATE ( 2022, 7, 7 ) ;
#14 = APPROVAL_PERSON_ORGANIZATION ( #171, #181, #244 ) ;
#15 = PRODUCT_DEFINITION_SHAPE ( 'NONE', 'NONE',  #90 ) ;
#16 = ORIENTED_EDGE ( 'NONE', *, *, #3, .T. ) ;
#18 = VERTEX_POINT ( 'NONE', #44 ) ;
#17 = ADVANCED_FACE ( 'NONE', ( #254 ), #1, .T. ) ;
#19 = AXIS2_PLACEMENT_3D ( 'NONE', #31, #123, #117 ) ;
#20 = CARTESIAN_POINT ( 'NONE',  ( 0.000000000000000000, 0.000000000000000000, 7.000000000000000000 ) ) ;
#21 = DIRECTION ( 'NONE',  ( 0.000000000000000000, 0.000000000000000000, 1.000000000000000000 ) ) ;
#22 = EDGE_CURVE ( 'NONE', #280, #25, #263, .T. ) ;
#23 = CARTESIAN_POINT ( 'NONE',  ( 0.000000000000000000, 0.000000000000000000, 0.000000000000000000 ) ) ;
#24 = CC_DESIGN_APPROVAL ( #36, ( #90 ) ) ;
#25 = VERTEX_POINT ( 'NONE', #112 ) ;
#26 = DIRECTION ( 'NONE',  ( 1.000000000000000000, 0.000000000000000000, -0.000000000000000000 ) ) ;
#27 = EDGE_CURVE ( 'NONE', #42, #109, #85, .T. ) ;
#28 = CARTESIAN_POINT ( 'NONE',  ( 6.250000000000000000, 7.654042494670957606E-16, 7.199999999999984190 ) ) ;
#29 = APPROVAL_PERSON_ORGANIZATION ( #241, #36, #103 ) ;
#30 = DIRECTION ( 'NONE',  ( 1.000000000000000000, 0.000000000000000000, 0.000000000000000000 ) ) ;
#31 = CARTESIAN_POINT ( 'NONE',  ( 0.000000000000000000, 0.000000000000000000, 807.0000000000000000 ) ) ;
#32 = CARTESIAN_POINT ( 'NONE',  ( 0.000000000000000000, 0.000000000000000000, 807.0000000000000000 ) ) ;
#33 = PERSON_AND_ORGANIZATION_ROLE ( 'creator' ) ;
#34 = DIRECTION ( 'NONE',  ( 0.000000000000000000, 0.000000000000000000, 1.000000000000000000 ) ) ;
#35 = AXIS2_PLACEMENT_3D ( 'NONE', #23, #21, #187 ) ;
#36 = APPROVAL ( #56, 'NEURÈENÝ' ) ;
#37 = MECHANICAL_CONTEXT ( 'NONE', #298, 'mechanical' ) ;
#38 = ORIENTED_EDGE ( 'NONE', *, *, #272, .F. ) ;
#39 = AXIS2_PLACEMENT_3D ( 'NONE', #189, #289, #75 ) ;
#40 = ORIENTED_EDGE ( 'NONE', *, *, #133, .T. ) ;
#41 = EDGE_CURVE ( 'NONE', #225, #108, #279, .T. ) ;
#42 = VERTEX_POINT ( 'NONE', #183 ) ;
#43 = AXIS2_PLACEMENT_3D ( 'NONE', #81, #293, #275 ) ;
#44 = CARTESIAN_POINT ( 'NONE',  ( -9.000000000000000000, 0.000000000000000000, 0.000000000000000000 ) ) ;
#45 = EDGE_CURVE ( 'NONE', #109, #108, #266, .T. ) ;
#46 = FACE_OUTER_BOUND ( 'NONE', #248, .T. ) ;
#47 = FACE_OUTER_BOUND ( 'NONE', #155, .T. ) ;
#48 = AXIS2_PLACEMENT_3D ( 'NONE', #116, #204, #307 ) ;
#49 = CC_DESIGN_PERSON_AND_ORGANIZATION_ASSIGNMENT ( #122, #218, ( #259 ) ) ;
#50 = CARTESIAN_POINT ( 'NONE',  ( 9.000000000000000000, 1.102182119232617714E-15, 7.000000000000000000 ) ) ;
#51 = DIRECTION ( 'NONE',  ( -0.000000000000000000, -0.000000000000000000, -1.000000000000000000 ) ) ;
#52 = AXIS2_PLACEMENT_3D ( 'NONE', #2, #231, #162 ) ;
#53 = FACE_OUTER_BOUND ( 'NONE', #180, .T. ) ;
#54 =( NAMED_UNIT ( * ) SI_UNIT ( $, .STERADIAN. ) SOLID_ANGLE_UNIT ( ) );
#55 = FACE_OUTER_BOUND ( 'NONE', #226, .T. ) ;
#56 = APPROVAL_STATUS ( 'not_yet_approved' ) ;
#57 = DATE_AND_TIME ( #82, #68 ) ;
#58 = APPROVAL_PERSON_ORGANIZATION ( #251, #174, #269 ) ;
#59 = COORDINATED_UNIVERSAL_TIME_OFFSET ( 1, 0, .AHEAD. ) ;
#60 = ORIENTED_EDGE ( 'NONE', *, *, #237, .T. ) ;
#61 = ORIENTED_EDGE ( 'NONE', *, *, #306, .F. ) ;
#62 = DATE_AND_TIME ( #179, #232 ) ;
#63 = CC_DESIGN_APPROVAL ( #181, ( #93 ) ) ;
#64 = ORIENTED_EDGE ( 'NONE', *, *, #104, .F. ) ;
#65 = CARTESIAN_POINT ( 'NONE',  ( -6.250000000000000000, 0.000000000000000000, 807.0000000000000000 ) ) ;
#66 = DATE_AND_TIME ( #13, #227 ) ;
#67 = DIRECTION ( 'NONE',  ( -0.000000000000000000, -0.000000000000000000, -1.000000000000000000 ) ) ;
#68 = LOCAL_TIME ( 11, 42, 0.000000000000000000, #126 ) ;
#69 = CARTESIAN_POINT ( 'NONE',  ( 6.450000000000000178, 0.000000000000000000, 7.199999999999984190 ) ) ;
#70 = DIRECTION ( 'NONE',  ( -1.000000000000000000, 0.000000000000000000, 0.000000000000000000 ) ) ;
#71 = DIRECTION ( 'NONE',  ( 0.000000000000000000, 0.000000000000000000, -1.000000000000000000 ) ) ;
#72 = EDGE_CURVE ( 'NONE', #18, #256, #129, .T. ) ;
#73 = AXIS2_PLACEMENT_3D ( 'NONE', #105, #12, #299 ) ;
#74 = MANIFOLD_SOLID_BREP ( 'Zaoblit1', #137 ) ;
#75 = DIRECTION ( 'NONE',  ( 1.000000000000000000, 0.000000000000000000, 0.000000000000000000 ) ) ;
#76 = DIRECTION ( 'NONE',  ( 0.000000000000000000, 0.000000000000000000, 1.000000000000000000 ) ) ;
#77 = CC_DESIGN_DATE_AND_TIME_ASSIGNMENT ( #220, #295, ( #90 ) ) ;
#78 = DIRECTION ( 'NONE',  ( 1.000000000000000000, 0.000000000000000000, 0.000000000000000000 ) ) ;
#79 = AXIS2_PLACEMENT_3D ( 'NONE', #211, #265, #30 ) ;
#80 = DIRECTION ( 'NONE',  ( 1.000000000000000000, 0.000000000000000000, 0.000000000000000000 ) ) ;
#81 = CARTESIAN_POINT ( 'NONE',  ( 0.000000000000000000, 0.000000000000000000, 0.000000000000000000 ) ) ;
#82 = CALENDAR_DATE ( 2022, 7, 7 ) ;
#83 = ADVANCED_FACE ( 'NONE', ( #47 ), #258, .T. ) ;
#84 = FACE_BOUND ( 'NONE', #151, .T. ) ;
#85 = CIRCLE ( 'NONE', #199, 0.1999999999999996503 ) ;
#86 = PERSON_AND_ORGANIZATION ( #253, #188 ) ;
#87 = APPROVAL_STATUS ( 'not_yet_approved' ) ;
#88 = CIRCLE ( 'NONE', #79, 6.450000000000000178 ) ;
#89 = ORIENTED_EDGE ( 'NONE', *, *, #72, .T. ) ;
#90 = PRODUCT_DEFINITION ( 'NEZNÁMÝ', '', #93, #212 ) ;
#91 = DIRECTION ( 'NONE',  ( -0.000000000000000000, -0.000000000000000000, -1.000000000000000000 ) ) ;
#92 = DIRECTION ( 'NONE',  ( -1.000000000000000000, 1.224646799147353454E-16, 0.000000000000000000 ) ) ;
#93 = PRODUCT_DEFINITION_FORMATION_WITH_SPECIFIED_SOURCE ( 'LIBOVOLNÝ', '', #259, .NOT_KNOWN. ) ;
#94 = VERTEX_POINT ( 'NONE', #65 ) ;
#95 = CARTESIAN_POINT ( 'NONE',  ( -6.450000000000000178, 7.898971854500428692E-16, 7.199999999999984190 ) ) ;
#96 = DIRECTION ( 'NONE',  ( 0.000000000000000000, 0.000000000000000000, 1.000000000000000000 ) ) ;
#97 = TOROIDAL_SURFACE ( 'NONE', #168, 6.450000000000000178, 0.2000000000000000111 ) ;
#98 = CARTESIAN_POINT ( 'NONE',  ( 0.000000000000000000, 0.000000000000000000, 807.0000000000000000 ) ) ;
#99 = ADVANCED_FACE ( 'NONE', ( #46 ), #153, .F. ) ;
#100 = CARTESIAN_POINT ( 'NONE',  ( 0.000000000000000000, 0.000000000000000000, 7.199999999999984190 ) ) ;
#101 = DIRECTION ( 'NONE',  ( 1.000000000000000000, 0.000000000000000000, 0.000000000000000000 ) ) ;
#102 = CIRCLE ( 'NONE', #216, 9.000000000000000000 ) ;
#103 = APPROVAL_ROLE ( '' ) ;
#104 = EDGE_CURVE ( 'NONE', #256, #18, #102, .T. ) ;
#105 = CARTESIAN_POINT ( 'NONE',  ( 0.000000000000000000, 0.000000000000000000, 7.000000000000000000 ) ) ;
#106 = COORDINATED_UNIVERSAL_TIME_OFFSET ( 1, 0, .AHEAD. ) ;
#107 = AXIS2_PLACEMENT_3D ( 'NONE', #210, #96, #80 ) ;
#108 = VERTEX_POINT ( 'NONE', #243 ) ;
#109 = VERTEX_POINT ( 'NONE', #213 ) ;
#110 = ORIENTED_EDGE ( 'NONE', *, *, #261, .T. ) ;
#111 = ORIENTED_EDGE ( 'NONE', *, *, #156, .F. ) ;
#112 = CARTESIAN_POINT ( 'NONE',  ( -9.000000000000000000, 0.000000000000000000, 7.000000000000000000 ) ) ;
#113 = ORIENTED_EDGE ( 'NONE', *, *, #41, .F. ) ;
#114 = DIRECTION ( 'NONE',  ( 0.000000000000000000, 0.000000000000000000, 1.000000000000000000 ) ) ;
#115 = AXIS2_PLACEMENT_3D ( 'NONE', #161, #91, #70 ) ;
#116 = CARTESIAN_POINT ( 'NONE',  ( 0.000000000000000000, 0.000000000000000000, 7.000000000000000000 ) ) ;
#117 = DIRECTION ( 'NONE',  ( 1.000000000000000000, 0.000000000000000000, -0.000000000000000000 ) ) ;
#118 = DIRECTION ( 'NONE',  ( -0.000000000000000000, -0.000000000000000000, -1.000000000000000000 ) ) ;
#119 = CIRCLE ( 'NONE', #300, 6.250000000000000000 ) ;
#120 = DIRECTION ( 'NONE',  ( -0.000000000000000000, -0.000000000000000000, -1.000000000000000000 ) ) ;
#121 = FACE_OUTER_BOUND ( 'NONE', #208, .T. ) ;
#122 = PERSON_AND_ORGANIZATION ( #253, #188 ) ;
#123 = DIRECTION ( 'NONE',  ( 0.000000000000000000, 0.000000000000000000, 1.000000000000000000 ) ) ;
#124 = VECTOR ( 'NONE', #145, 1000.000000000000000 ) ;
#125 = FACE_OUTER_BOUND ( 'NONE', #276, .T. ) ;
#126 = COORDINATED_UNIVERSAL_TIME_OFFSET ( 1, 0, .AHEAD. ) ;
#127 = PERSON_AND_ORGANIZATION_ROLE ( 'design_supplier' ) ;
#128 = APPLICATION_CONTEXT ( 'configuration controlled 3d designs of mechanical parts and assemblies' ) ;
#129 = CIRCLE ( 'NONE', #35, 9.000000000000000000 ) ;
#130 = VERTEX_POINT ( 'NONE', #191 ) ;
#131 = EDGE_LOOP ( 'NONE', ( #182, #157, #110, #89 ) ) ;
#132 = ORIENTED_EDGE ( 'NONE', *, *, #27, .F. ) ;
#133 = EDGE_CURVE ( 'NONE', #94, #130, #257, .T. ) ;
#134 = AXIS2_PLACEMENT_3D ( 'NONE', #214, #7, #5 ) ;
#135 = CARTESIAN_POINT ( 'NONE',  ( 0.000000000000000000, 0.000000000000000000, 7.000000000000000000 ) ) ;
#136 = ORIENTED_EDGE ( 'NONE', *, *, #22, .F. ) ;
#137 = CLOSED_SHELL ( 'NONE', ( #184, #290, #139, #17, #296, #197, #83, #233, #99 ) ) ;
#138 = LINE ( 'NONE', #193, #124 ) ;
#139 = ADVANCED_FACE ( 'NONE', ( #121 ), #292, .T. ) ;
#140 = CYLINDRICAL_SURFACE ( 'NONE', #245, 6.250000000000000000 ) ;
#141 = UNCERTAINTY_MEASURE_WITH_UNIT (LENGTH_MEASURE( 1.000000000000000082E-05 ), #149, 'distance_accuracy_value', 'NONE');
#142 = DIRECTION ( 'NONE',  ( 1.000000000000000000, 0.000000000000000000, 0.000000000000000000 ) ) ;
#143 = VECTOR ( 'NONE', #118, 1000.000000000000000 ) ;
#144 = DIRECTION ( 'NONE',  ( -0.000000000000000000, -0.000000000000000000, -1.000000000000000000 ) ) ;
#145 = DIRECTION ( 'NONE',  ( -0.000000000000000000, -0.000000000000000000, -1.000000000000000000 ) ) ;
#146 = EDGE_CURVE ( 'NONE', #25, #280, #163, .T. ) ;
#147 = APPROVAL_STATUS ( 'not_yet_approved' ) ;
#148 = AXIS2_PLACEMENT_3D ( 'NONE', #32, #34, #172 ) ;
#149 =( LENGTH_UNIT ( ) NAMED_UNIT ( * ) SI_UNIT ( .MILLI., .METRE. ) );
#150 = CALENDAR_DATE ( 2022, 7, 7 ) ;
#151 = EDGE_LOOP ( 'NONE', ( #250, #284 ) ) ;
#152 = ORIENTED_EDGE ( 'NONE', *, *, #22, .T. ) ;
#153 = TOROIDAL_SURFACE ( 'NONE', #52, 6.450000000000000178, 0.2000000000000000111 ) ;
#154 = PERSON_AND_ORGANIZATION ( #253, #188 ) ;
#155 = EDGE_LOOP ( 'NONE', ( #305, #177, #175, #60 ) ) ;
#156 = EDGE_CURVE ( 'NONE', #225, #42, #119, .T. ) ;
#157 = ORIENTED_EDGE ( 'NONE', *, *, #146, .F. ) ;
#158 = APPROVAL_DATE_TIME ( #66, #174 ) ;
#159 = DIRECTION ( 'NONE',  ( -0.000000000000000000, -0.000000000000000000, -1.000000000000000000 ) ) ;
#160 = DIRECTION ( 'NONE',  ( 1.224646799147353207E-16, 1.000000000000000000, -0.000000000000000000 ) ) ;
#161 = CARTESIAN_POINT ( 'NONE',  ( 0.000000000000000000, 0.000000000000000000, 807.0000000000000000 ) ) ;
#162 = DIRECTION ( 'NONE',  ( 1.000000000000000000, 0.000000000000000000, 0.000000000000000000 ) ) ;
#163 = CIRCLE ( 'NONE', #107, 9.000000000000000000 ) ;
#164 = CC_DESIGN_SECURITY_CLASSIFICATION ( #274, ( #93 ) ) ;
#165 = LINE ( 'NONE', #264, #143 ) ;
#166 = CARTESIAN_POINT ( 'NONE',  ( 9.000000000000000000, 1.102182119232617714E-15, 0.000000000000000000 ) ) ;
#167 = FACE_OUTER_BOUND ( 'NONE', #201, .T. ) ;
#168 = AXIS2_PLACEMENT_3D ( 'NONE', #291, #234, #78 ) ;
#169 = CC_DESIGN_PERSON_AND_ORGANIZATION_ASSIGNMENT ( #154, #221, ( #274 ) ) ;
#170 = DIRECTION ( 'NONE',  ( 0.000000000000000000, 0.000000000000000000, 1.000000000000000000 ) ) ;
#171 = PERSON_AND_ORGANIZATION ( #253, #188 ) ;
#172 = DIRECTION ( 'NONE',  ( 1.000000000000000000, 0.000000000000000000, 0.000000000000000000 ) ) ;
#173 =( GEOMETRIC_REPRESENTATION_CONTEXT ( 3 ) GLOBAL_UNCERTAINTY_ASSIGNED_CONTEXT ( ( #141 ) ) GLOBAL_UNIT_ASSIGNED_CONTEXT ( ( #149, #268, #54 ) ) REPRESENTATION_CONTEXT ( 'NONE', 'WORKASPACE' ) );
#174 = APPROVAL ( #87, 'NEURÈENÝ' ) ;
#175 = ORIENTED_EDGE ( 'NONE', *, *, #255, .T. ) ;
#176 = SHAPE_DEFINITION_REPRESENTATION ( #15, #219 ) ;
#177 = ORIENTED_EDGE ( 'NONE', *, *, #133, .F. ) ;
#178 = AXIS2_PLACEMENT_3D ( 'NONE', #69, #206, #71 ) ;
#179 = CALENDAR_DATE ( 2022, 7, 7 ) ;
#180 = EDGE_LOOP ( 'NONE', ( #61, #205, #198, #252 ) ) ;
#181 = APPROVAL ( #147, 'NEURÈENÝ' ) ;
#182 = ORIENTED_EDGE ( 'NONE', *, *, #3, .F. ) ;
#183 = CARTESIAN_POINT ( 'NONE',  ( -6.250000000000000000, 0.000000000000000000, 7.199999999999984190 ) ) ;
#184 = ADVANCED_FACE ( 'NONE', ( #190 ), #97, .F. ) ;
#185 = LOCAL_TIME ( 11, 42, 0.000000000000000000, #217 ) ;
#186 = DIRECTION ( 'NONE',  ( -1.000000000000000000, 0.000000000000000000, 0.000000000000000000 ) ) ;
#187 = DIRECTION ( 'NONE',  ( 1.000000000000000000, 0.000000000000000000, 0.000000000000000000 ) ) ;
#188 = ORGANIZATION ( 'NEURÈENÝ', 'NEURÈENÝ', '' ) ;
#189 = CARTESIAN_POINT ( 'NONE',  ( 0.000000000000000000, 0.000000000000000000, 7.199999999999984190 ) ) ;
#190 = FACE_OUTER_BOUND ( 'NONE', #203, .T. ) ;
#191 = CARTESIAN_POINT ( 'NONE',  ( 6.250000000000000000, 7.654042494670957606E-16, 807.0000000000000000 ) ) ;
#192 = PRODUCT_RELATED_PRODUCT_CATEGORY ( 'detail', '', ( #259 ) ) ;
#193 = CARTESIAN_POINT ( 'NONE',  ( 6.250000000000000000, 7.654042494670957606E-16, 807.0000000000000000 ) ) ;
#194 = LOCAL_TIME ( 11, 42, 0.000000000000000000, #59 ) ;
#195 = PERSON_AND_ORGANIZATION_ROLE ( 'creator' ) ;
#196 = DATE_AND_TIME ( #11, #185 ) ;
#197 = ADVANCED_FACE ( 'NONE', ( #167 ), #294, .F. ) ;
#198 = ORIENTED_EDGE ( 'NONE', *, *, #156, .T. ) ;
#199 = AXIS2_PLACEMENT_3D ( 'NONE', #95, #160, #92 ) ;
#200 = ORIENTED_EDGE ( 'NONE', *, *, #27, .T. ) ;
#201 = EDGE_LOOP ( 'NONE', ( #249, #64 ) ) ;
#202 = CC_DESIGN_APPROVAL ( #174, ( #274 ) ) ;
#203 = EDGE_LOOP ( 'NONE', ( #278, #200, #38, #113 ) ) ;
#204 = DIRECTION ( 'NONE',  ( -0.000000000000000000, -0.000000000000000000, -1.000000000000000000 ) ) ;
#205 = ORIENTED_EDGE ( 'NONE', *, *, #209, .T. ) ;
#206 = DIRECTION ( 'NONE',  ( 0.000000000000000000, -1.000000000000000000, 0.000000000000000000 ) ) ;
#207 = CIRCLE ( 'NONE', #148, 6.250000000000000000 ) ;
#208 = EDGE_LOOP ( 'NONE', ( #136, #16, #4, #303 ) ) ;
#209 = EDGE_CURVE ( 'NONE', #130, #225, #138, .T. ) ;
#210 = CARTESIAN_POINT ( 'NONE',  ( 0.000000000000000000, 0.000000000000000000, 7.000000000000000000 ) ) ;
#211 = CARTESIAN_POINT ( 'NONE',  ( 0.000000000000000000, 0.000000000000000000, 7.000000000000000000 ) ) ;
#212 = DESIGN_CONTEXT ( 'detailed design', #128, 'design' ) ;
#213 = CARTESIAN_POINT ( 'NONE',  ( -6.450000000000000178, 7.898971854500428692E-16, 6.999999999999992006 ) ) ;
#214 = CARTESIAN_POINT ( 'NONE',  ( 0.000000000000000000, 0.000000000000000000, 807.0000000000000000 ) ) ;
#215 = APPLICATION_PROTOCOL_DEFINITION ( 'international standard', 'config_control_design', 1994, #128 ) ;
#216 = AXIS2_PLACEMENT_3D ( 'NONE', #262, #114, #142 ) ;
#217 = COORDINATED_UNIVERSAL_TIME_OFFSET ( 1, 0, .AHEAD. ) ;
#218 = PERSON_AND_ORGANIZATION_ROLE ( 'design_owner' ) ;
#219 = ADVANCED_BREP_SHAPE_REPRESENTATION ( 'd352', ( #74, #43 ), #173 ) ;
#220 = DATE_AND_TIME ( #150, #194 ) ;
#221 = PERSON_AND_ORGANIZATION_ROLE ( 'classification_officer' ) ;
#222 = VECTOR ( 'NONE', #51, 1000.000000000000000 ) ;
#223 = PERSON_AND_ORGANIZATION ( #253, #188 ) ;
#224 = ORIENTED_EDGE ( 'NONE', *, *, #306, .T. ) ;
#225 = VERTEX_POINT ( 'NONE', #28 ) ;
#226 = EDGE_LOOP ( 'NONE', ( #40, #224 ) ) ;
#227 = LOCAL_TIME ( 11, 42, 0.000000000000000000, #277 ) ;
#228 = CC_DESIGN_PERSON_AND_ORGANIZATION_ASSIGNMENT ( #223, #33, ( #93 ) ) ;
#229 = DIRECTION ( 'NONE',  ( 0.000000000000000000, 0.000000000000000000, 1.000000000000000000 ) ) ;
#230 = LINE ( 'NONE', #283, #10 ) ;
#231 = DIRECTION ( 'NONE',  ( 0.000000000000000000, 0.000000000000000000, 1.000000000000000000 ) ) ;
#232 = LOCAL_TIME ( 11, 42, 0.000000000000000000, #106 ) ;
#233 = ADVANCED_FACE ( 'NONE', ( #55 ), #267, .T. ) ;
#234 = DIRECTION ( 'NONE',  ( 0.000000000000000000, 0.000000000000000000, 1.000000000000000000 ) ) ;
#235 = LINE ( 'NONE', #270, #222 ) ;
#236 = AXIS2_PLACEMENT_3D ( 'NONE', #20, #159, #186 ) ;
#237 = EDGE_CURVE ( 'NONE', #42, #225, #285, .T. ) ;
#238 = CARTESIAN_POINT ( 'NONE',  ( 0.000000000000000000, 0.000000000000000000, 0.000000000000000000 ) ) ;
#239 = PLANE ( 'NONE',  #73 ) ;
#240 = CARTESIAN_POINT ( 'NONE',  ( 0.000000000000000000, 0.000000000000000000, 7.000000000000000000 ) ) ;
#241 = PERSON_AND_ORGANIZATION ( #253, #188 ) ;
#242 = DATE_TIME_ROLE ( 'classification_date' ) ;
#243 = CARTESIAN_POINT ( 'NONE',  ( 6.450000000000000178, 0.000000000000000000, 6.999999999999992006 ) ) ;
#244 = APPROVAL_ROLE ( '' ) ;
#245 = AXIS2_PLACEMENT_3D ( 'NONE', #98, #120, #8 ) ;
#246 = CC_DESIGN_PERSON_AND_ORGANIZATION_ASSIGNMENT ( #273, #195, ( #90 ) ) ;
#247 = APPLICATION_PROTOCOL_DEFINITION ( 'international standard', 'config_control_design', 1994, #298 ) ;
#248 = EDGE_LOOP ( 'NONE', ( #132, #111, #287, #281 ) ) ;
#249 = ORIENTED_EDGE ( 'NONE', *, *, #72, .F. ) ;
#250 = ORIENTED_EDGE ( 'NONE', *, *, #272, .T. ) ;
#251 = PERSON_AND_ORGANIZATION ( #253, #188 ) ;
#252 = ORIENTED_EDGE ( 'NONE', *, *, #255, .F. ) ;
#253 = PERSON ( 'NEURÈENÝ', 'NEURÈENÝ', 'NEURÈENÝ', ('NEURÈENÝ'), ('NEURÈENÝ'), ('NEURÈENÝ') ) ;
#254 = FACE_OUTER_BOUND ( 'NONE', #131, .T. ) ;
#255 = EDGE_CURVE ( 'NONE', #94, #42, #235, .T. ) ;
#256 = VERTEX_POINT ( 'NONE', #166 ) ;
#257 = CIRCLE ( 'NONE', #134, 6.250000000000000000 ) ;
#258 = CYLINDRICAL_SURFACE ( 'NONE', #115, 6.250000000000000000 ) ;
#259 = PRODUCT ( 'd352', 'd352', '', ( #37 ) ) ;
#260 = ORIENTED_EDGE ( 'NONE', *, *, #146, .T. ) ;
#261 = EDGE_CURVE ( 'NONE', #25, #18, #165, .T. ) ;
#262 = CARTESIAN_POINT ( 'NONE',  ( 0.000000000000000000, 0.000000000000000000, 0.000000000000000000 ) ) ;
#263 = CIRCLE ( 'NONE', #288, 9.000000000000000000 ) ;
#264 = CARTESIAN_POINT ( 'NONE',  ( -9.000000000000000000, 0.000000000000000000, 7.000000000000000000 ) ) ;
#265 = DIRECTION ( 'NONE',  ( -0.000000000000000000, -0.000000000000000000, -1.000000000000000000 ) ) ;
#266 = CIRCLE ( 'NONE', #48, 6.450000000000000178 ) ;
#267 = PLANE ( 'NONE',  #19 ) ;
#268 =( NAMED_UNIT ( * ) PLANE_ANGLE_UNIT ( ) SI_UNIT ( $, .RADIAN. ) );
#269 = APPROVAL_ROLE ( '' ) ;
#270 = CARTESIAN_POINT ( 'NONE',  ( -6.250000000000000000, 0.000000000000000000, 807.0000000000000000 ) ) ;
#271 = APPROVAL_DATE_TIME ( #57, #36 ) ;
#272 = EDGE_CURVE ( 'NONE', #108, #109, #88, .T. ) ;
#273 = PERSON_AND_ORGANIZATION ( #253, #188 ) ;
#274 = SECURITY_CLASSIFICATION ( '', '', #302 ) ;
#275 = DIRECTION ( 'NONE',  ( 1.000000000000000000, 0.000000000000000000, 0.000000000000000000 ) ) ;
#276 = EDGE_LOOP ( 'NONE', ( #260, #152 ) ) ;
#277 = COORDINATED_UNIVERSAL_TIME_OFFSET ( 1, 0, .AHEAD. ) ;
#278 = ORIENTED_EDGE ( 'NONE', *, *, #237, .F. ) ;
#279 = CIRCLE ( 'NONE', #178, 0.1999999999999996503 ) ;
#280 = VERTEX_POINT ( 'NONE', #50 ) ;
#281 = ORIENTED_EDGE ( 'NONE', *, *, #45, .F. ) ;
#282 = CC_DESIGN_DATE_AND_TIME_ASSIGNMENT ( #62, #242, ( #274 ) ) ;
#283 = CARTESIAN_POINT ( 'NONE',  ( 9.000000000000000000, 1.102182119232617714E-15, 7.000000000000000000 ) ) ;
#284 = ORIENTED_EDGE ( 'NONE', *, *, #45, .T. ) ;
#285 = CIRCLE ( 'NONE', #39, 6.250000000000000000 ) ;
#286 = DIRECTION ( 'NONE',  ( 1.000000000000000000, 0.000000000000000000, 0.000000000000000000 ) ) ;
#287 = ORIENTED_EDGE ( 'NONE', *, *, #41, .T. ) ;
#288 = AXIS2_PLACEMENT_3D ( 'NONE', #135, #229, #286 ) ;
#289 = DIRECTION ( 'NONE',  ( 0.000000000000000000, 0.000000000000000000, 1.000000000000000000 ) ) ;
#290 = ADVANCED_FACE ( 'NONE', ( #53 ), #140, .T. ) ;
#291 = CARTESIAN_POINT ( 'NONE',  ( 0.000000000000000000, 0.000000000000000000, 7.199999999999984190 ) ) ;
#292 = CYLINDRICAL_SURFACE ( 'NONE', #6, 9.000000000000000000 ) ;
#293 = DIRECTION ( 'NONE',  ( 0.000000000000000000, 0.000000000000000000, 1.000000000000000000 ) ) ;
#294 = PLANE ( 'NONE',  #304 ) ;
#295 = DATE_TIME_ROLE ( 'creation_date' ) ;
#296 = ADVANCED_FACE ( 'NONE', ( #84, #125 ), #239, .T. ) ;
#297 = APPROVAL_DATE_TIME ( #196, #181 ) ;
#298 = APPLICATION_CONTEXT ( 'configuration controlled 3d designs of mechanical parts and assemblies' ) ;
#299 = DIRECTION ( 'NONE',  ( 1.000000000000000000, 0.000000000000000000, -0.000000000000000000 ) ) ;
#300 = AXIS2_PLACEMENT_3D ( 'NONE', #100, #170, #101 ) ;
#301 = CC_DESIGN_PERSON_AND_ORGANIZATION_ASSIGNMENT ( #86, #127, ( #93 ) ) ;
#302 = SECURITY_CLASSIFICATION_LEVEL ( 'unclassified' ) ;
#303 = ORIENTED_EDGE ( 'NONE', *, *, #261, .F. ) ;
#304 = AXIS2_PLACEMENT_3D ( 'NONE', #238, #76, #26 ) ;
#305 = ORIENTED_EDGE ( 'NONE', *, *, #209, .F. ) ;
#306 = EDGE_CURVE ( 'NONE', #130, #94, #207, .T. ) ;
#307 = DIRECTION ( 'NONE',  ( 1.000000000000000000, 0.000000000000000000, 0.000000000000000000 ) ) ;
ENDSEC;
END-ISO-10303-21;
