ISO-10303-21;
HEADER;
FILE_DESCRIPTION (( 'STEP AP203' ),
    '1' );
FILE_NAME ('fb9c.STEP',
    '2023-02-12T12:07:13',
    ( '' ),
    ( '' ),
    'SwSTEP 2.0',
    'SolidWorks 2019',
    '' );
FILE_SCHEMA (( 'CONFIG_CONTROL_DESIGN' ));
ENDSEC;

DATA;
#1 = CARTESIAN_POINT ( 'NONE',  ( 0.000000000000000000, 0.000000000000000000, 0.000000000000000000 ) ) ;
#2 = EDGE_LOOP ( 'NONE', ( #249, #50, #188, #102 ) ) ;
#3 = APPLICATION_CONTEXT ( 'configuration controlled 3d designs of mechanical parts and assemblies' ) ;
#4 = DIRECTION ( 'NONE',  ( -1.000000000000000000, 0.000000000000000000, 0.000000000000000000 ) ) ;
#5 = ORIENTED_EDGE ( 'NONE', *, *, #57, .T. ) ;
#6 = DIRECTION ( 'NONE',  ( 1.000000000000000000, 0.000000000000000000, 0.000000000000000000 ) ) ;
#7 = CC_DESIGN_APPROVAL ( #187, ( #197 ) ) ;
#8 = DIRECTION ( 'NONE',  ( 0.000000000000000000, 0.000000000000000000, 1.000000000000000000 ) ) ;
#9 = CALENDAR_DATE ( 2023, 12, 2 ) ;
#10 = FACE_OUTER_BOUND ( 'NONE', #66, .T. ) ;
#11 = APPLICATION_PROTOCOL_DEFINITION ( 'international standard', 'config_control_design', 1994, #3 ) ;
#12 = CARTESIAN_POINT ( 'NONE',  ( 0.000000000000000000, 0.000000000000000000, 500.0000000000000000 ) ) ;
#13 = PERSON_AND_ORGANIZATION ( #191, #132 ) ;
#14 = PRODUCT_DEFINITION_FORMATION_WITH_SPECIFIED_SOURCE ( 'LIBOVOLNÝ', '', #47, .NOT_KNOWN. ) ;
#15 = AXIS2_PLACEMENT_3D ( 'NONE', #139, #218, #4 ) ;
#16 = DESIGN_CONTEXT ( 'detailed design', #3, 'design' ) ;
#17 = DIRECTION ( 'NONE',  ( -0.000000000000000000, -0.000000000000000000, -1.000000000000000000 ) ) ;
#18 = DIRECTION ( 'NONE',  ( -0.000000000000000000, -0.000000000000000000, -1.000000000000000000 ) ) ;
#19 = APPROVAL ( #67, 'NEURÈENÝ' ) ;
#20 = DIRECTION ( 'NONE',  ( 0.000000000000000000, 0.000000000000000000, 1.000000000000000000 ) ) ;
#21 = CARTESIAN_POINT ( 'NONE',  ( 0.000000000000000000, 0.000000000000000000, 0.000000000000000000 ) ) ;
#22 = FACE_BOUND ( 'NONE', #220, .T. ) ;
#23 = APPROVAL_DATE_TIME ( #160, #184 ) ;
#24 = PLANE ( 'NONE',  #84 ) ;
#25 = DATE_TIME_ROLE ( 'classification_date' ) ;
#26 = DIRECTION ( 'NONE',  ( 0.000000000000000000, 0.000000000000000000, 1.000000000000000000 ) ) ;
#27 = MECHANICAL_CONTEXT ( 'NONE', #223, 'mechanical' ) ;
#28 = DIRECTION ( 'NONE',  ( 0.000000000000000000, 0.000000000000000000, 1.000000000000000000 ) ) ;
#29 = APPLICATION_PROTOCOL_DEFINITION ( 'international standard', 'config_control_design', 1994, #223 ) ;
#30 = DATE_AND_TIME ( #190, #213 ) ;
#31 = CC_DESIGN_APPROVAL ( #19, ( #65 ) ) ;
#32 = CIRCLE ( 'NONE', #36, 3.250000000000000444 ) ;
#33 = AXIS2_PLACEMENT_3D ( 'NONE', #203, #144, #166 ) ;
#34 = CARTESIAN_POINT ( 'NONE',  ( 0.000000000000000000, 0.000000000000000000, 5.000000000000000000 ) ) ;
#35 = DIRECTION ( 'NONE',  ( -0.000000000000000000, -0.000000000000000000, -1.000000000000000000 ) ) ;
#36 = AXIS2_PLACEMENT_3D ( 'NONE', #88, #8, #48 ) ;
#37 = CC_DESIGN_PERSON_AND_ORGANIZATION_ASSIGNMENT ( #13, #207, ( #14 ) ) ;
#38 = DIRECTION ( 'NONE',  ( 1.000000000000000000, 0.000000000000000000, 0.000000000000000000 ) ) ;
#39 = DIRECTION ( 'NONE',  ( -0.000000000000000000, -0.000000000000000000, -1.000000000000000000 ) ) ;
#40 = VERTEX_POINT ( 'NONE', #64 ) ;
#41 = ORIENTED_EDGE ( 'NONE', *, *, #195, .F. ) ;
#42 = ORIENTED_EDGE ( 'NONE', *, *, #231, .T. ) ;
#43 = PERSON_AND_ORGANIZATION_ROLE ( 'classification_officer' ) ;
#44 = CIRCLE ( 'NONE', #123, 3.250000000000000444 ) ;
#45 = FACE_OUTER_BOUND ( 'NONE', #77, .T. ) ;
#46 = APPROVAL_ROLE ( '' ) ;
#47 = PRODUCT ( 'fb9c', 'fb9c', '', ( #27 ) ) ;
#48 = DIRECTION ( 'NONE',  ( 1.000000000000000000, 0.000000000000000000, 0.000000000000000000 ) ) ;
#49 = EDGE_CURVE ( 'NONE', #202, #200, #32, .T. ) ;
#50 = ORIENTED_EDGE ( 'NONE', *, *, #101, .F. ) ;
#51 = COORDINATED_UNIVERSAL_TIME_OFFSET ( 1, 0, .AHEAD. ) ;
#52 = COORDINATED_UNIVERSAL_TIME_OFFSET ( 1, 0, .AHEAD. ) ;
#53 = UNCERTAINTY_MEASURE_WITH_UNIT (LENGTH_MEASURE( 1.000000000000000082E-05 ), #152, 'distance_accuracy_value', 'NONE');
#54 = AXIS2_PLACEMENT_3D ( 'NONE', #12, #90, #243 ) ;
#55 = DIRECTION ( 'NONE',  ( 0.000000000000000000, 0.000000000000000000, 1.000000000000000000 ) ) ;
#56 = CARTESIAN_POINT ( 'NONE',  ( 0.000000000000000000, 0.000000000000000000, 0.000000000000000000 ) ) ;
#57 = EDGE_CURVE ( 'NONE', #200, #202, #93, .T. ) ;
#58 = CLOSED_SHELL ( 'NONE', ( #131, #103, #116, #113, #147, #154, #153 ) ) ;
#59 = CARTESIAN_POINT ( 'NONE',  ( -6.000000000000000888, 0.000000000000000000, 5.000000000000000000 ) ) ;
#60 = DIRECTION ( 'NONE',  ( 0.000000000000000000, 0.000000000000000000, 1.000000000000000000 ) ) ;
#61 = EDGE_LOOP ( 'NONE', ( #110, #41 ) ) ;
#62 = PERSON_AND_ORGANIZATION ( #191, #132 ) ;
#63 = CC_DESIGN_APPROVAL ( #184, ( #14 ) ) ;
#64 = CARTESIAN_POINT ( 'NONE',  ( 3.250000000000000444, 3.980102097228898231E-16, 500.0000000000000000 ) ) ;
#65 = PRODUCT_DEFINITION ( 'NEZNÁMÝ', '', #14, #16 ) ;
#66 = EDGE_LOOP ( 'NONE', ( #100, #86 ) ) ;
#67 = APPROVAL_STATUS ( 'not_yet_approved' ) ;
#68 = DIRECTION ( 'NONE',  ( 1.000000000000000000, 0.000000000000000000, -0.000000000000000000 ) ) ;
#69 = APPROVAL_PERSON_ORGANIZATION ( #225, #184, #46 ) ;
#70 = AXIS2_PLACEMENT_3D ( 'NONE', #21, #254, #135 ) ;
#71 = ORIENTED_EDGE ( 'NONE', *, *, #219, .F. ) ;
#72 = PERSON_AND_ORGANIZATION ( #191, #132 ) ;
#73 = CIRCLE ( 'NONE', #115, 6.000000000000000888 ) ;
#74 = LINE ( 'NONE', #150, #245 ) ;
#75 = CYLINDRICAL_SURFACE ( 'NONE', #185, 3.250000000000000444 ) ;
#76 = CARTESIAN_POINT ( 'NONE',  ( -3.250000000000000444, 0.000000000000000000, 500.0000000000000000 ) ) ;
#77 = EDGE_LOOP ( 'NONE', ( #167, #179, #240, #71 ) ) ;
#78 = PLANE ( 'NONE',  #232 ) ;
#79 = APPROVAL_PERSON_ORGANIZATION ( #148, #187, #125 ) ;
#80 = EDGE_CURVE ( 'NONE', #142, #202, #251, .T. ) ;
#81 = ORIENTED_EDGE ( 'NONE', *, *, #80, .F. ) ;
#82 = CC_DESIGN_PERSON_AND_ORGANIZATION_ASSIGNMENT ( #62, #186, ( #14 ) ) ;
#83 = PERSON_AND_ORGANIZATION ( #191, #132 ) ;
#84 = AXIS2_PLACEMENT_3D ( 'NONE', #247, #26, #68 ) ;
#85 = EDGE_CURVE ( 'NONE', #142, #40, #137, .T. ) ;
#86 = ORIENTED_EDGE ( 'NONE', *, *, #253, .T. ) ;
#87 = PERSON_AND_ORGANIZATION_ROLE ( 'design_owner' ) ;
#88 = CARTESIAN_POINT ( 'NONE',  ( 0.000000000000000000, 0.000000000000000000, 5.000000000000000000 ) ) ;
#89 = DATE_AND_TIME ( #212, #108 ) ;
#90 = DIRECTION ( 'NONE',  ( 0.000000000000000000, 0.000000000000000000, 1.000000000000000000 ) ) ;
#91 = CC_DESIGN_DATE_AND_TIME_ASSIGNMENT ( #141, #25, ( #197 ) ) ;
#92 =( GEOMETRIC_REPRESENTATION_CONTEXT ( 3 ) GLOBAL_UNCERTAINTY_ASSIGNED_CONTEXT ( ( #53 ) ) GLOBAL_UNIT_ASSIGNED_CONTEXT ( ( #152, #181, #192 ) ) REPRESENTATION_CONTEXT ( 'NONE', 'WORKASPACE' ) );
#93 = CIRCLE ( 'NONE', #180, 3.250000000000000444 ) ;
#94 = DIRECTION ( 'NONE',  ( 1.000000000000000000, 0.000000000000000000, 0.000000000000000000 ) ) ;
#95 = AXIS2_PLACEMENT_3D ( 'NONE', #122, #217, #173 ) ;
#96 = DIRECTION ( 'NONE',  ( 1.000000000000000000, 0.000000000000000000, 0.000000000000000000 ) ) ;
#97 = CARTESIAN_POINT ( 'NONE',  ( 0.000000000000000000, 0.000000000000000000, 500.0000000000000000 ) ) ;
#98 = ORIENTED_EDGE ( 'NONE', *, *, #57, .F. ) ;
#99 = CARTESIAN_POINT ( 'NONE',  ( 6.000000000000000888, 7.347880794884120722E-16, 0.000000000000000000 ) ) ;
#100 = ORIENTED_EDGE ( 'NONE', *, *, #101, .T. ) ;
#101 = EDGE_CURVE ( 'NONE', #129, #246, #73, .T. ) ;
#102 = ORIENTED_EDGE ( 'NONE', *, *, #193, .T. ) ;
#103 = ADVANCED_FACE ( 'NONE', ( #45 ), #209, .T. ) ;
#104 = CARTESIAN_POINT ( 'NONE',  ( 0.000000000000000000, 0.000000000000000000, 0.000000000000000000 ) ) ;
#105 = VECTOR ( 'NONE', #128, 1000.000000000000000 ) ;
#106 = VERTEX_POINT ( 'NONE', #206 ) ;
#107 = APPROVAL_STATUS ( 'not_yet_approved' ) ;
#108 = LOCAL_TIME ( 13, 7, 13.00000000000000000, #52 ) ;
#109 = CIRCLE ( 'NONE', #176, 6.000000000000000888 ) ;
#110 = ORIENTED_EDGE ( 'NONE', *, *, #193, .F. ) ;
#111 = PERSON_AND_ORGANIZATION_ROLE ( 'creator' ) ;
#112 = EDGE_LOOP ( 'NONE', ( #178, #126 ) ) ;
#113 = ADVANCED_FACE ( 'NONE', ( #22, #10 ), #24, .T. ) ;
#114 = COORDINATED_UNIVERSAL_TIME_OFFSET ( 1, 0, .AHEAD. ) ;
#115 = AXIS2_PLACEMENT_3D ( 'NONE', #164, #140, #124 ) ;
#116 = ADVANCED_FACE ( 'NONE', ( #228 ), #118, .T. ) ;
#117 = CC_DESIGN_PERSON_AND_ORGANIZATION_ASSIGNMENT ( #72, #43, ( #197 ) ) ;
#118 = CYLINDRICAL_SURFACE ( 'NONE', #15, 6.000000000000000888 ) ;
#119 = PLANE ( 'NONE',  #171 ) ;
#120 = DIRECTION ( 'NONE',  ( 0.000000000000000000, 0.000000000000000000, 1.000000000000000000 ) ) ;
#121 = MANIFOLD_SOLID_BREP ( 'Pøidat vysunutím3', #58 ) ;
#122 = CARTESIAN_POINT ( 'NONE',  ( 0.000000000000000000, 0.000000000000000000, 500.0000000000000000 ) ) ;
#123 = AXIS2_PLACEMENT_3D ( 'NONE', #97, #120, #96 ) ;
#124 = DIRECTION ( 'NONE',  ( 1.000000000000000000, 0.000000000000000000, 0.000000000000000000 ) ) ;
#125 = APPROVAL_ROLE ( '' ) ;
#126 = ORIENTED_EDGE ( 'NONE', *, *, #222, .T. ) ;
#127 = PERSON_AND_ORGANIZATION ( #191, #132 ) ;
#128 = DIRECTION ( 'NONE',  ( -0.000000000000000000, -0.000000000000000000, -1.000000000000000000 ) ) ;
#129 = VERTEX_POINT ( 'NONE', #59 ) ;
#130 = DIRECTION ( 'NONE',  ( 0.000000000000000000, 0.000000000000000000, 1.000000000000000000 ) ) ;
#131 = ADVANCED_FACE ( 'NONE', ( #216 ), #75, .T. ) ;
#132 = ORGANIZATION ( 'NEURÈENÝ', 'NEURÈENÝ', '' ) ;
#133 = CC_DESIGN_PERSON_AND_ORGANIZATION_ASSIGNMENT ( #83, #111, ( #65 ) ) ;
#134 = ORIENTED_EDGE ( 'NONE', *, *, #49, .F. ) ;
#135 = DIRECTION ( 'NONE',  ( 1.000000000000000000, 0.000000000000000000, 0.000000000000000000 ) ) ;
#136 = CARTESIAN_POINT ( 'NONE',  ( 0.000000000000000000, 0.000000000000000000, 500.0000000000000000 ) ) ;
#137 = CIRCLE ( 'NONE', #54, 3.250000000000000444 ) ;
#138 = FACE_OUTER_BOUND ( 'NONE', #61, .T. ) ;
#139 = CARTESIAN_POINT ( 'NONE',  ( 0.000000000000000000, 0.000000000000000000, 5.000000000000000000 ) ) ;
#140 = DIRECTION ( 'NONE',  ( 0.000000000000000000, 0.000000000000000000, 1.000000000000000000 ) ) ;
#141 = DATE_AND_TIME ( #244, #201 ) ;
#142 = VERTEX_POINT ( 'NONE', #76 ) ;
#143 = PERSON_AND_ORGANIZATION ( #191, #132 ) ;
#144 = DIRECTION ( 'NONE',  ( -0.000000000000000000, -0.000000000000000000, -1.000000000000000000 ) ) ;
#145 = SHAPE_DEFINITION_REPRESENTATION ( #226, #210 ) ;
#146 = ORIENTED_EDGE ( 'NONE', *, *, #49, .T. ) ;
#147 = ADVANCED_FACE ( 'NONE', ( #138 ), #119, .F. ) ;
#148 = PERSON_AND_ORGANIZATION ( #191, #132 ) ;
#149 = EDGE_CURVE ( 'NONE', #246, #211, #198, .T. ) ;
#150 = CARTESIAN_POINT ( 'NONE',  ( -6.000000000000000888, 0.000000000000000000, 5.000000000000000000 ) ) ;
#151 = DIRECTION ( 'NONE',  ( 1.000000000000000000, 0.000000000000000000, -0.000000000000000000 ) ) ;
#152 =( LENGTH_UNIT ( ) NAMED_UNIT ( * ) SI_UNIT ( .MILLI., .METRE. ) );
#153 = ADVANCED_FACE ( 'NONE', ( #175 ), #78, .T. ) ;
#154 = ADVANCED_FACE ( 'NONE', ( #242 ), #235, .T. ) ;
#155 = ORIENTED_EDGE ( 'NONE', *, *, #222, .F. ) ;
#156 = LOCAL_TIME ( 13, 7, 13.00000000000000000, #51 ) ;
#157 = CARTESIAN_POINT ( 'NONE',  ( 0.000000000000000000, 0.000000000000000000, 500.0000000000000000 ) ) ;
#158 = ORIENTED_EDGE ( 'NONE', *, *, #231, .F. ) ;
#159 = DIRECTION ( 'NONE',  ( 1.000000000000000000, 0.000000000000000000, 0.000000000000000000 ) ) ;
#160 = DATE_AND_TIME ( #204, #156 ) ;
#161 = ORIENTED_EDGE ( 'NONE', *, *, #80, .T. ) ;
#162 = VECTOR ( 'NONE', #35, 1000.000000000000000 ) ;
#163 = COORDINATED_UNIVERSAL_TIME_OFFSET ( 1, 0, .AHEAD. ) ;
#164 = CARTESIAN_POINT ( 'NONE',  ( 0.000000000000000000, 0.000000000000000000, 5.000000000000000000 ) ) ;
#165 = DATE_AND_TIME ( #9, #241 ) ;
#166 = DIRECTION ( 'NONE',  ( -1.000000000000000000, 0.000000000000000000, 0.000000000000000000 ) ) ;
#167 = ORIENTED_EDGE ( 'NONE', *, *, #253, .F. ) ;
#168 = APPROVAL_STATUS ( 'not_yet_approved' ) ;
#169 = CARTESIAN_POINT ( 'NONE',  ( 3.250000000000000444, 3.980102097228898231E-16, 5.000000000000000000 ) ) ;
#170 = CC_DESIGN_SECURITY_CLASSIFICATION ( #197, ( #14 ) ) ;
#171 = AXIS2_PLACEMENT_3D ( 'NONE', #56, #60, #151 ) ;
#172 = CARTESIAN_POINT ( 'NONE',  ( 3.250000000000000444, 3.980102097228898231E-16, 500.0000000000000000 ) ) ;
#173 = DIRECTION ( 'NONE',  ( -1.000000000000000000, 0.000000000000000000, 0.000000000000000000 ) ) ;
#174 = EDGE_LOOP ( 'NONE', ( #158, #183, #161, #146 ) ) ;
#175 = FACE_OUTER_BOUND ( 'NONE', #112, .T. ) ;
#176 = AXIS2_PLACEMENT_3D ( 'NONE', #1, #196, #38 ) ;
#177 = AXIS2_PLACEMENT_3D ( 'NONE', #104, #130, #6 ) ;
#178 = ORIENTED_EDGE ( 'NONE', *, *, #85, .T. ) ;
#179 = ORIENTED_EDGE ( 'NONE', *, *, #149, .T. ) ;
#180 = AXIS2_PLACEMENT_3D ( 'NONE', #224, #28, #159 ) ;
#181 =( NAMED_UNIT ( * ) PLANE_ANGLE_UNIT ( ) SI_UNIT ( $, .RADIAN. ) );
#182 = APPROVAL_PERSON_ORGANIZATION ( #143, #19, #229 ) ;
#183 = ORIENTED_EDGE ( 'NONE', *, *, #85, .F. ) ;
#184 = APPROVAL ( #168, 'NEURÈENÝ' ) ;
#185 = AXIS2_PLACEMENT_3D ( 'NONE', #136, #39, #199 ) ;
#186 = PERSON_AND_ORGANIZATION_ROLE ( 'creator' ) ;
#187 = APPROVAL ( #107, 'NEURÈENÝ' ) ;
#188 = ORIENTED_EDGE ( 'NONE', *, *, #219, .T. ) ;
#189 = CARTESIAN_POINT ( 'NONE',  ( -3.250000000000000444, 0.000000000000000000, 500.0000000000000000 ) ) ;
#190 = CALENDAR_DATE ( 2023, 12, 2 ) ;
#191 = PERSON ( 'NEURÈENÝ', 'NEURÈENÝ', 'NEURÈENÝ', ('NEURÈENÝ'), ('NEURÈENÝ'), ('NEURÈENÝ') ) ;
#192 =( NAMED_UNIT ( * ) SI_UNIT ( $, .STERADIAN. ) SOLID_ANGLE_UNIT ( ) );
#193 = EDGE_CURVE ( 'NONE', #106, #211, #109, .T. ) ;
#194 = CARTESIAN_POINT ( 'NONE',  ( -3.250000000000000444, 0.000000000000000000, 5.000000000000000000 ) ) ;
#195 = EDGE_CURVE ( 'NONE', #211, #106, #237, .T. ) ;
#196 = DIRECTION ( 'NONE',  ( 0.000000000000000000, 0.000000000000000000, 1.000000000000000000 ) ) ;
#197 = SECURITY_CLASSIFICATION ( '', '', #252 ) ;
#198 = LINE ( 'NONE', #239, #162 ) ;
#199 = DIRECTION ( 'NONE',  ( -1.000000000000000000, 0.000000000000000000, 0.000000000000000000 ) ) ;
#200 = VERTEX_POINT ( 'NONE', #169 ) ;
#201 = LOCAL_TIME ( 13, 7, 13.00000000000000000, #114 ) ;
#202 = VERTEX_POINT ( 'NONE', #194 ) ;
#203 = CARTESIAN_POINT ( 'NONE',  ( 0.000000000000000000, 0.000000000000000000, 5.000000000000000000 ) ) ;
#204 = CALENDAR_DATE ( 2023, 12, 2 ) ;
#205 = CC_DESIGN_PERSON_AND_ORGANIZATION_ASSIGNMENT ( #127, #87, ( #47 ) ) ;
#206 = CARTESIAN_POINT ( 'NONE',  ( -6.000000000000000888, 0.000000000000000000, 0.000000000000000000 ) ) ;
#207 = PERSON_AND_ORGANIZATION_ROLE ( 'design_supplier' ) ;
#208 = CIRCLE ( 'NONE', #214, 6.000000000000000888 ) ;
#209 = CYLINDRICAL_SURFACE ( 'NONE', #33, 6.000000000000000888 ) ;
#210 = ADVANCED_BREP_SHAPE_REPRESENTATION ( 'fb9c', ( #121, #177 ), #92 ) ;
#211 = VERTEX_POINT ( 'NONE', #99 ) ;
#212 = CALENDAR_DATE ( 2023, 12, 2 ) ;
#213 = LOCAL_TIME ( 13, 7, 13.00000000000000000, #163 ) ;
#214 = AXIS2_PLACEMENT_3D ( 'NONE', #34, #20, #94 ) ;
#215 = LINE ( 'NONE', #172, #236 ) ;
#216 = FACE_OUTER_BOUND ( 'NONE', #227, .T. ) ;
#217 = DIRECTION ( 'NONE',  ( -0.000000000000000000, -0.000000000000000000, -1.000000000000000000 ) ) ;
#218 = DIRECTION ( 'NONE',  ( -0.000000000000000000, -0.000000000000000000, -1.000000000000000000 ) ) ;
#219 = EDGE_CURVE ( 'NONE', #129, #106, #74, .T. ) ;
#220 = EDGE_LOOP ( 'NONE', ( #134, #98 ) ) ;
#221 = APPROVAL_DATE_TIME ( #89, #19 ) ;
#222 = EDGE_CURVE ( 'NONE', #40, #142, #44, .T. ) ;
#223 = APPLICATION_CONTEXT ( 'configuration controlled 3d designs of mechanical parts and assemblies' ) ;
#224 = CARTESIAN_POINT ( 'NONE',  ( 0.000000000000000000, 0.000000000000000000, 5.000000000000000000 ) ) ;
#225 = PERSON_AND_ORGANIZATION ( #191, #132 ) ;
#226 = PRODUCT_DEFINITION_SHAPE ( 'NONE', 'NONE',  #65 ) ;
#227 = EDGE_LOOP ( 'NONE', ( #155, #42, #5, #81 ) ) ;
#228 = FACE_OUTER_BOUND ( 'NONE', #2, .T. ) ;
#229 = APPROVAL_ROLE ( '' ) ;
#230 = COORDINATED_UNIVERSAL_TIME_OFFSET ( 1, 0, .AHEAD. ) ;
#231 = EDGE_CURVE ( 'NONE', #40, #200, #215, .T. ) ;
#232 = AXIS2_PLACEMENT_3D ( 'NONE', #157, #55, #238 ) ;
#233 = CC_DESIGN_DATE_AND_TIME_ASSIGNMENT ( #30, #250, ( #65 ) ) ;
#234 = PRODUCT_RELATED_PRODUCT_CATEGORY ( 'detail', '', ( #47 ) ) ;
#235 = CYLINDRICAL_SURFACE ( 'NONE', #95, 3.250000000000000444 ) ;
#236 = VECTOR ( 'NONE', #17, 1000.000000000000000 ) ;
#237 = CIRCLE ( 'NONE', #70, 6.000000000000000888 ) ;
#238 = DIRECTION ( 'NONE',  ( 1.000000000000000000, 0.000000000000000000, -0.000000000000000000 ) ) ;
#239 = CARTESIAN_POINT ( 'NONE',  ( 6.000000000000000888, 7.347880794884120722E-16, 5.000000000000000000 ) ) ;
#240 = ORIENTED_EDGE ( 'NONE', *, *, #195, .T. ) ;
#241 = LOCAL_TIME ( 13, 7, 13.00000000000000000, #230 ) ;
#242 = FACE_OUTER_BOUND ( 'NONE', #174, .T. ) ;
#243 = DIRECTION ( 'NONE',  ( 1.000000000000000000, 0.000000000000000000, 0.000000000000000000 ) ) ;
#244 = CALENDAR_DATE ( 2023, 12, 2 ) ;
#245 = VECTOR ( 'NONE', #18, 1000.000000000000000 ) ;
#246 = VERTEX_POINT ( 'NONE', #255 ) ;
#247 = CARTESIAN_POINT ( 'NONE',  ( 0.000000000000000000, 0.000000000000000000, 5.000000000000000000 ) ) ;
#248 = APPROVAL_DATE_TIME ( #165, #187 ) ;
#249 = ORIENTED_EDGE ( 'NONE', *, *, #149, .F. ) ;
#250 = DATE_TIME_ROLE ( 'creation_date' ) ;
#251 = LINE ( 'NONE', #189, #105 ) ;
#252 = SECURITY_CLASSIFICATION_LEVEL ( 'unclassified' ) ;
#253 = EDGE_CURVE ( 'NONE', #246, #129, #208, .T. ) ;
#254 = DIRECTION ( 'NONE',  ( 0.000000000000000000, 0.000000000000000000, 1.000000000000000000 ) ) ;
#255 = CARTESIAN_POINT ( 'NONE',  ( 6.000000000000000888, 7.347880794884120722E-16, 5.000000000000000000 ) ) ;
ENDSEC;
END-ISO-10303-21;
