ISO-10303-21;
HEADER;
FILE_DESCRIPTION (( 'STEP AP203' ),
    '1' );
FILE_NAME ('ca21.STEP',
    '2022-08-08T13:23:33',
    ( '' ),
    ( '' ),
    'SwSTEP 2.0',
    'SolidWorks 2019',
    '' );
FILE_SCHEMA (( 'CONFIG_CONTROL_DESIGN' ));
ENDSEC;

DATA;
#1 = PERSON_AND_ORGANIZATION_ROLE ( 'design_supplier' ) ;
#2 = CARTESIAN_POINT ( 'NONE',  ( 0.000000000000000000, 0.000000000000000000, 1.199999999999999956 ) ) ;
#3 = EDGE_LOOP ( 'NONE', ( #245, #259, #134, #149 ) ) ;
#4 = VERTEX_POINT ( 'NONE', #174 ) ;
#5 = VERTEX_POINT ( 'NONE', #125 ) ;
#6 = CC_DESIGN_PERSON_AND_ORGANIZATION_ASSIGNMENT ( #283, #76, ( #237 ) ) ;
#7 = DIRECTION ( 'NONE',  ( 1.000000000000000000, 0.000000000000000000, 0.000000000000000000 ) ) ;
#8 = ORGANIZATION ( 'NEURÈENÝ', 'NEURÈENÝ', '' ) ;
#9 = DIRECTION ( 'NONE',  ( 0.000000000000000000, 0.000000000000000000, 1.000000000000000000 ) ) ;
#10 = FACE_OUTER_BOUND ( 'NONE', #305, .T. ) ;
#11 = DIRECTION ( 'NONE',  ( 0.000000000000000000, 0.000000000000000000, 1.000000000000000000 ) ) ;
#12 = CIRCLE ( 'NONE', #272, 1.250000000000000000 ) ;
#13 = CARTESIAN_POINT ( 'NONE',  ( -0.5000000000000000000, 0.000000000000000000, 101.2000000000000171 ) ) ;
#14 = AXIS2_PLACEMENT_3D ( 'NONE', #110, #63, #15 ) ;
#15 = DIRECTION ( 'NONE',  ( -1.000000000000000000, 1.224646799147352714E-16, 0.000000000000000000 ) ) ;
#16 = CARTESIAN_POINT ( 'NONE',  ( 0.000000000000000000, 0.000000000000000000, 1.399999999999998579 ) ) ;
#17 = APPROVAL ( #184, 'NEURÈENÝ' ) ;
#18 = DIRECTION ( 'NONE',  ( 0.000000000000000000, 0.000000000000000000, 1.000000000000000000 ) ) ;
#19 = CC_DESIGN_SECURITY_CLASSIFICATION ( #258, ( #156 ) ) ;
#20 = DIRECTION ( 'NONE',  ( -0.000000000000000000, -0.000000000000000000, -1.000000000000000000 ) ) ;
#21 = ORIENTED_EDGE ( 'NONE', *, *, #287, .T. ) ;
#22 = ORIENTED_EDGE ( 'NONE', *, *, #145, .T. ) ;
#23 = APPROVAL_DATE_TIME ( #119, #17 ) ;
#24 = CLOSED_SHELL ( 'NONE', ( #96, #224, #243, #276, #164, #153, #178, #114, #138 ) ) ;
#25 = CIRCLE ( 'NONE', #71, 0.5000000000000000000 ) ;
#26 = VERTEX_POINT ( 'NONE', #80 ) ;
#27 = CALENDAR_DATE ( 2022, 8, 8 ) ;
#28 = EDGE_LOOP ( 'NONE', ( #211, #22, #103, #289 ) ) ;
#29 = DIRECTION ( 'NONE',  ( 0.000000000000000000, 0.000000000000000000, 1.000000000000000000 ) ) ;
#30 = APPROVAL_STATUS ( 'not_yet_approved' ) ;
#31 = DIRECTION ( 'NONE',  ( 1.000000000000000000, 0.000000000000000000, 0.000000000000000000 ) ) ;
#32 = CC_DESIGN_PERSON_AND_ORGANIZATION_ASSIGNMENT ( #263, #1, ( #156 ) ) ;
#33 = CARTESIAN_POINT ( 'NONE',  ( 0.000000000000000000, 0.000000000000000000, 0.000000000000000000 ) ) ;
#34 = CARTESIAN_POINT ( 'NONE',  ( 0.000000000000000000, 0.000000000000000000, 0.000000000000000000 ) ) ;
#35 = CIRCLE ( 'NONE', #148, 0.5000000000000000000 ) ;
#36 = CARTESIAN_POINT ( 'NONE',  ( -1.250000000000000000, 0.000000000000000000, 1.199999999999999956 ) ) ;
#37 = PRODUCT ( 'ca21', 'ca21', '', ( #95 ) ) ;
#38 = DIRECTION ( 'NONE',  ( 1.000000000000000000, 0.000000000000000000, 0.000000000000000000 ) ) ;
#39 = CIRCLE ( 'NONE', #268, 1.250000000000000000 ) ;
#40 = EDGE_CURVE ( 'NONE', #5, #261, #70, .T. ) ;
#41 = DIRECTION ( 'NONE',  ( 0.000000000000000000, 0.000000000000000000, 1.000000000000000000 ) ) ;
#42 = CARTESIAN_POINT ( 'NONE',  ( 0.000000000000000000, 0.000000000000000000, 101.2000000000000171 ) ) ;
#43 = FACE_OUTER_BOUND ( 'NONE', #291, .T. ) ;
#44 = CC_DESIGN_PERSON_AND_ORGANIZATION_ASSIGNMENT ( #52, #214, ( #156 ) ) ;
#45 = CIRCLE ( 'NONE', #81, 0.5000000000000000000 ) ;
#46 = ORIENTED_EDGE ( 'NONE', *, *, #61, .T. ) ;
#47 = DIRECTION ( 'NONE',  ( 0.000000000000000000, 0.000000000000000000, 1.000000000000000000 ) ) ;
#48 = ORIENTED_EDGE ( 'NONE', *, *, #182, .F. ) ;
#49 = SHAPE_DEFINITION_REPRESENTATION ( #109, #227 ) ;
#50 = ORIENTED_EDGE ( 'NONE', *, *, #86, .T. ) ;
#51 = LOCAL_TIME ( 15, 23, 33.00000000000000000, #264 ) ;
#52 = PERSON_AND_ORGANIZATION ( #293, #8 ) ;
#53 = ORIENTED_EDGE ( 'NONE', *, *, #145, .F. ) ;
#54 = APPLICATION_CONTEXT ( 'configuration controlled 3d designs of mechanical parts and assemblies' ) ;
#55 = LINE ( 'NONE', #36, #60 ) ;
#56 = DIRECTION ( 'NONE',  ( 0.000000000000000000, 0.000000000000000000, 1.000000000000000000 ) ) ;
#57 = EDGE_CURVE ( 'NONE', #240, #4, #65, .T. ) ;
#58 = AXIS2_PLACEMENT_3D ( 'NONE', #266, #203, #179 ) ;
#59 = DIRECTION ( 'NONE',  ( 0.000000000000000000, -1.000000000000000000, 0.000000000000000000 ) ) ;
#60 = VECTOR ( 'NONE', #85, 1000.000000000000000 ) ;
#61 = EDGE_CURVE ( 'NONE', #217, #261, #306, .T. ) ;
#62 = DIRECTION ( 'NONE',  ( 0.000000000000000000, 0.000000000000000000, 1.000000000000000000 ) ) ;
#63 = DIRECTION ( 'NONE',  ( 1.224646799147353207E-16, 1.000000000000000000, -0.000000000000000000 ) ) ;
#64 = DIRECTION ( 'NONE',  ( -0.000000000000000000, -0.000000000000000000, -1.000000000000000000 ) ) ;
#65 = CIRCLE ( 'NONE', #299, 0.5000000000000000000 ) ;
#66 = DIRECTION ( 'NONE',  ( -0.000000000000000000, -0.000000000000000000, -1.000000000000000000 ) ) ;
#67 = CARTESIAN_POINT ( 'NONE',  ( 0.6999999999999999556, 0.000000000000000000, 1.199999999999999289 ) ) ;
#68 = APPLICATION_CONTEXT ( 'configuration controlled 3d designs of mechanical parts and assemblies' ) ;
#69 = CARTESIAN_POINT ( 'NONE',  ( 0.000000000000000000, 0.000000000000000000, 101.2000000000000171 ) ) ;
#70 = CIRCLE ( 'NONE', #58, 0.6999999999999999556 ) ;
#71 = AXIS2_PLACEMENT_3D ( 'NONE', #93, #275, #256 ) ;
#72 = CYLINDRICAL_SURFACE ( 'NONE', #141, 0.5000000000000000000 ) ;
#73 = PERSON_AND_ORGANIZATION ( #293, #8 ) ;
#74 = CC_DESIGN_DATE_AND_TIME_ASSIGNMENT ( #82, #297, ( #237 ) ) ;
#75 = APPROVAL_ROLE ( '' ) ;
#76 = PERSON_AND_ORGANIZATION_ROLE ( 'creator' ) ;
#77 = AXIS2_PLACEMENT_3D ( 'NONE', #84, #59, #157 ) ;
#78 = CC_DESIGN_APPROVAL ( #127, ( #258 ) ) ;
#79 = ORIENTED_EDGE ( 'NONE', *, *, #132, .T. ) ;
#80 = CARTESIAN_POINT ( 'NONE',  ( 1.250000000000000000, 1.530808498934191571E-16, 1.199999999999999956 ) ) ;
#81 = AXIS2_PLACEMENT_3D ( 'NONE', #16, #47, #304 ) ;
#82 = DATE_AND_TIME ( #99, #51 ) ;
#83 = CIRCLE ( 'NONE', #14, 0.1999999999999999833 ) ;
#84 = CARTESIAN_POINT ( 'NONE',  ( 0.6999999999999999556, 0.000000000000000000, 1.399999999999998579 ) ) ;
#85 = DIRECTION ( 'NONE',  ( -0.000000000000000000, -0.000000000000000000, -1.000000000000000000 ) ) ;
#86 = EDGE_CURVE ( 'NONE', #4, #173, #108, .T. ) ;
#87 = DIRECTION ( 'NONE',  ( 0.000000000000000000, 0.000000000000000000, 1.000000000000000000 ) ) ;
#88 = PERSON_AND_ORGANIZATION ( #293, #8 ) ;
#89 = CC_DESIGN_APPROVAL ( #17, ( #156 ) ) ;
#90 = APPROVAL_STATUS ( 'not_yet_approved' ) ;
#91 = CARTESIAN_POINT ( 'NONE',  ( 0.5000000000000000000, 6.123233995736766036E-17, 101.2000000000000171 ) ) ;
#92 = ORIENTED_EDGE ( 'NONE', *, *, #57, .F. ) ;
#93 = CARTESIAN_POINT ( 'NONE',  ( 0.000000000000000000, 0.000000000000000000, 1.399999999999998579 ) ) ;
#94 = ORIENTED_EDGE ( 'NONE', *, *, #120, .F. ) ;
#95 = MECHANICAL_CONTEXT ( 'NONE', #54, 'mechanical' ) ;
#96 = ADVANCED_FACE ( 'NONE', ( #249 ), #175, .F. ) ;
#97 = EDGE_LOOP ( 'NONE', ( #94, #151, #124, #100 ) ) ;
#98 = ORIENTED_EDGE ( 'NONE', *, *, #176, .T. ) ;
#99 = CALENDAR_DATE ( 2022, 8, 8 ) ;
#100 = ORIENTED_EDGE ( 'NONE', *, *, #101, .F. ) ;
#101 = EDGE_CURVE ( 'NONE', #192, #281, #55, .T. ) ;
#102 = PERSON_AND_ORGANIZATION_ROLE ( 'design_owner' ) ;
#103 = ORIENTED_EDGE ( 'NONE', *, *, #262, .F. ) ;
#104 = PLANE ( 'NONE',  #177 ) ;
#105 = ORIENTED_EDGE ( 'NONE', *, *, #120, .T. ) ;
#106 = EDGE_CURVE ( 'NONE', #213, #281, #12, .T. ) ;
#107 = AXIS2_PLACEMENT_3D ( 'NONE', #2, #64, #161 ) ;
#108 = LINE ( 'NONE', #13, #126 ) ;
#109 = PRODUCT_DEFINITION_SHAPE ( 'NONE', 'NONE',  #237 ) ;
#110 = CARTESIAN_POINT ( 'NONE',  ( -0.6999999999999999556, 8.572527594031471957E-17, 1.399999999999998579 ) ) ;
#111 = CARTESIAN_POINT ( 'NONE',  ( 1.250000000000000000, 1.530808498934191571E-16, 1.199999999999999956 ) ) ;
#112 = CARTESIAN_POINT ( 'NONE',  ( 0.5000000000000000000, 6.123233995736766036E-17, 101.2000000000000171 ) ) ;
#113 = CIRCLE ( 'NONE', #171, 1.250000000000000000 ) ;
#114 = ADVANCED_FACE ( 'NONE', ( #223 ), #205, .T. ) ;
#115 = DIRECTION ( 'NONE',  ( -1.000000000000000000, 0.000000000000000000, 0.000000000000000000 ) ) ;
#116 = ORIENTED_EDGE ( 'NONE', *, *, #40, .T. ) ;
#117 = CARTESIAN_POINT ( 'NONE',  ( -0.5000000000000000000, 0.000000000000000000, 1.399999999999998579 ) ) ;
#118 = ORIENTED_EDGE ( 'NONE', *, *, #40, .F. ) ;
#119 = DATE_AND_TIME ( #193, #228 ) ;
#120 = EDGE_CURVE ( 'NONE', #26, #192, #235, .T. ) ;
#121 =( NAMED_UNIT ( * ) SI_UNIT ( $, .STERADIAN. ) SOLID_ANGLE_UNIT ( ) );
#122 = EDGE_LOOP ( 'NONE', ( #172, #116 ) ) ;
#123 = DATE_AND_TIME ( #27, #158 ) ;
#124 = ORIENTED_EDGE ( 'NONE', *, *, #106, .T. ) ;
#125 = CARTESIAN_POINT ( 'NONE',  ( -0.6999999999999999556, 8.572527594031473190E-17, 1.199999999999999289 ) ) ;
#126 = VECTOR ( 'NONE', #253, 1000.000000000000000 ) ;
#127 = APPROVAL ( #90, 'NEURÈENÝ' ) ;
#128 = COORDINATED_UNIVERSAL_TIME_OFFSET ( 1, 0, .AHEAD. ) ;
#129 = DIRECTION ( 'NONE',  ( 1.000000000000000000, 0.000000000000000000, -0.000000000000000000 ) ) ;
#130 = APPLICATION_PROTOCOL_DEFINITION ( 'international standard', 'config_control_design', 1994, #54 ) ;
#131 = DIRECTION ( 'NONE',  ( 1.000000000000000000, 0.000000000000000000, 0.000000000000000000 ) ) ;
#132 = EDGE_CURVE ( 'NONE', #192, #26, #39, .T. ) ;
#133 = PRODUCT_RELATED_PRODUCT_CATEGORY ( 'detail', '', ( #37 ) ) ;
#134 = ORIENTED_EDGE ( 'NONE', *, *, #101, .T. ) ;
#135 = DIRECTION ( 'NONE',  ( 1.000000000000000000, 0.000000000000000000, 0.000000000000000000 ) ) ;
#136 = DIRECTION ( 'NONE',  ( -1.000000000000000000, 0.000000000000000000, 0.000000000000000000 ) ) ;
#137 = DIRECTION ( 'NONE',  ( 0.000000000000000000, 0.000000000000000000, 1.000000000000000000 ) ) ;
#138 = ADVANCED_FACE ( 'NONE', ( #248 ), #140, .F. ) ;
#139 = CARTESIAN_POINT ( 'NONE',  ( 0.000000000000000000, 0.000000000000000000, 101.2000000000000171 ) ) ;
#140 = TOROIDAL_SURFACE ( 'NONE', #294, 0.6999999999999999556, 0.2000000000000000111 ) ;
#141 = AXIS2_PLACEMENT_3D ( 'NONE', #42, #166, #136 ) ;
#142 = ORIENTED_EDGE ( 'NONE', *, *, #292, .F. ) ;
#143 = COORDINATED_UNIVERSAL_TIME_OFFSET ( 1, 0, .AHEAD. ) ;
#144 = CARTESIAN_POINT ( 'NONE',  ( 0.000000000000000000, 0.000000000000000000, 0.000000000000000000 ) ) ;
#145 = EDGE_CURVE ( 'NONE', #173, #5, #83, .T. ) ;
#146 = DIRECTION ( 'NONE',  ( -0.000000000000000000, -0.000000000000000000, -1.000000000000000000 ) ) ;
#147 = ORIENTED_EDGE ( 'NONE', *, *, #182, .T. ) ;
#148 = AXIS2_PLACEMENT_3D ( 'NONE', #69, #137, #207 ) ;
#149 = ORIENTED_EDGE ( 'NONE', *, *, #218, .T. ) ;
#150 = PERSON_AND_ORGANIZATION ( #293, #8 ) ;
#151 = ORIENTED_EDGE ( 'NONE', *, *, #200, .T. ) ;
#152 = PERSON_AND_ORGANIZATION ( #293, #8 ) ;
#153 = ADVANCED_FACE ( 'NONE', ( #265 ), #154, .F. ) ;
#154 = PLANE ( 'NONE',  #250 ) ;
#155 = DIRECTION ( 'NONE',  ( 1.000000000000000000, 0.000000000000000000, -0.000000000000000000 ) ) ;
#156 = PRODUCT_DEFINITION_FORMATION_WITH_SPECIFIED_SOURCE ( 'LIBOVOLNÝ', '', #37, .NOT_KNOWN. ) ;
#157 = DIRECTION ( 'NONE',  ( 0.000000000000000000, 0.000000000000000000, -1.000000000000000000 ) ) ;
#158 = LOCAL_TIME ( 15, 23, 33.00000000000000000, #168 ) ;
#159 = DIRECTION ( 'NONE',  ( 1.000000000000000000, 0.000000000000000000, 0.000000000000000000 ) ) ;
#160 = CARTESIAN_POINT ( 'NONE',  ( 0.000000000000000000, 0.000000000000000000, 1.399999999999998579 ) ) ;
#161 = DIRECTION ( 'NONE',  ( 1.000000000000000000, 0.000000000000000000, 0.000000000000000000 ) ) ;
#162 = DIRECTION ( 'NONE',  ( -0.000000000000000000, -0.000000000000000000, -1.000000000000000000 ) ) ;
#163 = DIRECTION ( 'NONE',  ( -1.000000000000000000, 0.000000000000000000, 0.000000000000000000 ) ) ;
#164 = ADVANCED_FACE ( 'NONE', ( #225, #10 ), #104, .T. ) ;
#165 = ORIENTED_EDGE ( 'NONE', *, *, #292, .T. ) ;
#166 = DIRECTION ( 'NONE',  ( -0.000000000000000000, -0.000000000000000000, -1.000000000000000000 ) ) ;
#167 = EDGE_LOOP ( 'NONE', ( #165, #246 ) ) ;
#168 = COORDINATED_UNIVERSAL_TIME_OFFSET ( 1, 0, .AHEAD. ) ;
#169 = DATE_TIME_ROLE ( 'classification_date' ) ;
#170 = AXIS2_PLACEMENT_3D ( 'NONE', #270, #269, #31 ) ;
#171 = AXIS2_PLACEMENT_3D ( 'NONE', #144, #41, #190 ) ;
#172 = ORIENTED_EDGE ( 'NONE', *, *, #262, .T. ) ;
#173 = VERTEX_POINT ( 'NONE', #117 ) ;
#174 = CARTESIAN_POINT ( 'NONE',  ( -0.5000000000000000000, 0.000000000000000000, 101.2000000000000171 ) ) ;
#175 = TOROIDAL_SURFACE ( 'NONE', #241, 0.6999999999999999556, 0.2000000000000000111 ) ;
#176 = EDGE_CURVE ( 'NONE', #173, #217, #45, .T. ) ;
#177 = AXIS2_PLACEMENT_3D ( 'NONE', #201, #18, #257 ) ;
#178 = ADVANCED_FACE ( 'NONE', ( #43 ), #278, .T. ) ;
#179 = DIRECTION ( 'NONE',  ( 1.000000000000000000, 0.000000000000000000, 0.000000000000000000 ) ) ;
#180 = DIRECTION ( 'NONE',  ( 1.000000000000000000, 0.000000000000000000, 0.000000000000000000 ) ) ;
#181 = CARTESIAN_POINT ( 'NONE',  ( 0.000000000000000000, 0.000000000000000000, 1.199999999999999956 ) ) ;
#182 = EDGE_CURVE ( 'NONE', #217, #173, #25, .T. ) ;
#183 = AXIS2_PLACEMENT_3D ( 'NONE', #206, #11, #155 ) ;
#184 = APPROVAL_STATUS ( 'not_yet_approved' ) ;
#185 = AXIS2_PLACEMENT_3D ( 'NONE', #139, #162, #209 ) ;
#186 = CYLINDRICAL_SURFACE ( 'NONE', #244, 1.250000000000000000 ) ;
#187 = SECURITY_CLASSIFICATION_LEVEL ( 'unclassified' ) ;
#188 = CC_DESIGN_DATE_AND_TIME_ASSIGNMENT ( #220, #169, ( #258 ) ) ;
#189 = FACE_OUTER_BOUND ( 'NONE', #3, .T. ) ;
#190 = DIRECTION ( 'NONE',  ( 1.000000000000000000, 0.000000000000000000, 0.000000000000000000 ) ) ;
#191 = AXIS2_PLACEMENT_3D ( 'NONE', #33, #9, #7 ) ;
#192 = VERTEX_POINT ( 'NONE', #255 ) ;
#193 = CALENDAR_DATE ( 2022, 8, 8 ) ;
#194 = APPROVAL_DATE_TIME ( #290, #252 ) ;
#195 = CALENDAR_DATE ( 2022, 8, 8 ) ;
#196 = CALENDAR_DATE ( 2022, 8, 8 ) ;
#197 = CIRCLE ( 'NONE', #107, 0.6999999999999999556 ) ;
#198 = APPLICATION_PROTOCOL_DEFINITION ( 'international standard', 'config_control_design', 1994, #68 ) ;
#199 = APPROVAL_ROLE ( '' ) ;
#200 = EDGE_CURVE ( 'NONE', #26, #213, #277, .T. ) ;
#201 = CARTESIAN_POINT ( 'NONE',  ( 0.000000000000000000, 0.000000000000000000, 1.199999999999999956 ) ) ;
#202 = DESIGN_CONTEXT ( 'detailed design', #68, 'design' ) ;
#203 = DIRECTION ( 'NONE',  ( -0.000000000000000000, -0.000000000000000000, -1.000000000000000000 ) ) ;
#204 = VECTOR ( 'NONE', #303, 1000.000000000000000 ) ;
#205 = PLANE ( 'NONE',  #183 ) ;
#206 = CARTESIAN_POINT ( 'NONE',  ( 0.000000000000000000, 0.000000000000000000, 101.2000000000000171 ) ) ;
#207 = DIRECTION ( 'NONE',  ( 1.000000000000000000, 0.000000000000000000, 0.000000000000000000 ) ) ;
#208 = APPROVAL_PERSON_ORGANIZATION ( #150, #127, #75 ) ;
#209 = DIRECTION ( 'NONE',  ( -1.000000000000000000, 0.000000000000000000, 0.000000000000000000 ) ) ;
#210 = FACE_OUTER_BOUND ( 'NONE', #97, .T. ) ;
#211 = ORIENTED_EDGE ( 'NONE', *, *, #176, .F. ) ;
#212 =( NAMED_UNIT ( * ) PLANE_ANGLE_UNIT ( ) SI_UNIT ( $, .RADIAN. ) );
#213 = VERTEX_POINT ( 'NONE', #215 ) ;
#214 = PERSON_AND_ORGANIZATION_ROLE ( 'creator' ) ;
#215 = CARTESIAN_POINT ( 'NONE',  ( 1.250000000000000000, 1.530808498934191571E-16, 0.000000000000000000 ) ) ;
#216 = APPROVAL_PERSON_ORGANIZATION ( #288, #252, #199 ) ;
#217 = VERTEX_POINT ( 'NONE', #271 ) ;
#218 = EDGE_CURVE ( 'NONE', #281, #213, #113, .T. ) ;
#219 = EDGE_LOOP ( 'NONE', ( #92, #21, #147, #239 ) ) ;
#220 = DATE_AND_TIME ( #195, #307 ) ;
#221 = ORIENTED_EDGE ( 'NONE', *, *, #106, .F. ) ;
#222 = LOCAL_TIME ( 15, 23, 33.00000000000000000, #128 ) ;
#223 = FACE_OUTER_BOUND ( 'NONE', #167, .T. ) ;
#224 = ADVANCED_FACE ( 'NONE', ( #280 ), #72, .T. ) ;
#225 = FACE_BOUND ( 'NONE', #122, .T. ) ;
#226 = DIRECTION ( 'NONE',  ( 0.000000000000000000, 0.000000000000000000, 1.000000000000000000 ) ) ;
#227 = ADVANCED_BREP_SHAPE_REPRESENTATION ( 'ca21', ( #238, #191 ), #254 ) ;
#228 = LOCAL_TIME ( 15, 23, 33.00000000000000000, #302 ) ;
#229 = CC_DESIGN_PERSON_AND_ORGANIZATION_ASSIGNMENT ( #152, #102, ( #37 ) ) ;
#230 = ORIENTED_EDGE ( 'NONE', *, *, #218, .F. ) ;
#231 = UNCERTAINTY_MEASURE_WITH_UNIT (LENGTH_MEASURE( 1.000000000000000082E-05 ), #298, 'distance_accuracy_value', 'NONE');
#232 = CC_DESIGN_PERSON_AND_ORGANIZATION_ASSIGNMENT ( #73, #284, ( #258 ) ) ;
#233 = CARTESIAN_POINT ( 'NONE',  ( 0.000000000000000000, 0.000000000000000000, 1.199999999999999956 ) ) ;
#234 = LINE ( 'NONE', #112, #204 ) ;
#235 = CIRCLE ( 'NONE', #170, 1.250000000000000000 ) ;
#236 = CYLINDRICAL_SURFACE ( 'NONE', #273, 1.250000000000000000 ) ;
#237 = PRODUCT_DEFINITION ( 'NEZNÁMÝ', '', #156, #202 ) ;
#238 = MANIFOLD_SOLID_BREP ( 'Zaoblit1', #24 ) ;
#239 = ORIENTED_EDGE ( 'NONE', *, *, #86, .F. ) ;
#240 = VERTEX_POINT ( 'NONE', #91 ) ;
#241 = AXIS2_PLACEMENT_3D ( 'NONE', #251, #56, #131 ) ;
#242 = APPROVAL_DATE_TIME ( #123, #127 ) ;
#243 = ADVANCED_FACE ( 'NONE', ( #210 ), #186, .T. ) ;
#244 = AXIS2_PLACEMENT_3D ( 'NONE', #260, #146, #163 ) ;
#245 = ORIENTED_EDGE ( 'NONE', *, *, #200, .F. ) ;
#246 = ORIENTED_EDGE ( 'NONE', *, *, #57, .T. ) ;
#247 = CARTESIAN_POINT ( 'NONE',  ( 0.000000000000000000, 0.000000000000000000, 0.000000000000000000 ) ) ;
#248 = FACE_OUTER_BOUND ( 'NONE', #286, .T. ) ;
#249 = FACE_OUTER_BOUND ( 'NONE', #28, .T. ) ;
#250 = AXIS2_PLACEMENT_3D ( 'NONE', #247, #29, #129 ) ;
#251 = CARTESIAN_POINT ( 'NONE',  ( 0.000000000000000000, 0.000000000000000000, 1.399999999999998579 ) ) ;
#252 = APPROVAL ( #30, 'NEURÈENÝ' ) ;
#253 = DIRECTION ( 'NONE',  ( -0.000000000000000000, -0.000000000000000000, -1.000000000000000000 ) ) ;
#254 =( GEOMETRIC_REPRESENTATION_CONTEXT ( 3 ) GLOBAL_UNCERTAINTY_ASSIGNED_CONTEXT ( ( #231 ) ) GLOBAL_UNIT_ASSIGNED_CONTEXT ( ( #298, #212, #121 ) ) REPRESENTATION_CONTEXT ( 'NONE', 'WORKASPACE' ) );
#255 = CARTESIAN_POINT ( 'NONE',  ( -1.250000000000000000, 0.000000000000000000, 1.199999999999999956 ) ) ;
#256 = DIRECTION ( 'NONE',  ( 1.000000000000000000, 0.000000000000000000, 0.000000000000000000 ) ) ;
#257 = DIRECTION ( 'NONE',  ( 1.000000000000000000, 0.000000000000000000, -0.000000000000000000 ) ) ;
#258 = SECURITY_CLASSIFICATION ( '', '', #187 ) ;
#259 = ORIENTED_EDGE ( 'NONE', *, *, #132, .F. ) ;
#260 = CARTESIAN_POINT ( 'NONE',  ( 0.000000000000000000, 0.000000000000000000, 1.199999999999999956 ) ) ;
#261 = VERTEX_POINT ( 'NONE', #67 ) ;
#262 = EDGE_CURVE ( 'NONE', #261, #5, #197, .T. ) ;
#263 = PERSON_AND_ORGANIZATION ( #293, #8 ) ;
#264 = COORDINATED_UNIVERSAL_TIME_OFFSET ( 1, 0, .AHEAD. ) ;
#265 = FACE_OUTER_BOUND ( 'NONE', #282, .T. ) ;
#266 = CARTESIAN_POINT ( 'NONE',  ( 0.000000000000000000, 0.000000000000000000, 1.199999999999999956 ) ) ;
#267 = CARTESIAN_POINT ( 'NONE',  ( 0.000000000000000000, 0.000000000000000000, 101.2000000000000171 ) ) ;
#268 = AXIS2_PLACEMENT_3D ( 'NONE', #233, #62, #159 ) ;
#269 = DIRECTION ( 'NONE',  ( 0.000000000000000000, 0.000000000000000000, 1.000000000000000000 ) ) ;
#270 = CARTESIAN_POINT ( 'NONE',  ( 0.000000000000000000, 0.000000000000000000, 1.199999999999999956 ) ) ;
#271 = CARTESIAN_POINT ( 'NONE',  ( 0.5000000000000000000, 6.123233995736766036E-17, 1.399999999999998579 ) ) ;
#272 = AXIS2_PLACEMENT_3D ( 'NONE', #34, #226, #135 ) ;
#273 = AXIS2_PLACEMENT_3D ( 'NONE', #181, #20, #115 ) ;
#274 = APPROVAL_ROLE ( '' ) ;
#275 = DIRECTION ( 'NONE',  ( 0.000000000000000000, 0.000000000000000000, 1.000000000000000000 ) ) ;
#276 = ADVANCED_FACE ( 'NONE', ( #189 ), #236, .T. ) ;
#277 = LINE ( 'NONE', #111, #300 ) ;
#278 = CYLINDRICAL_SURFACE ( 'NONE', #185, 0.5000000000000000000 ) ;
#279 = CC_DESIGN_APPROVAL ( #252, ( #237 ) ) ;
#280 = FACE_OUTER_BOUND ( 'NONE', #219, .T. ) ;
#281 = VERTEX_POINT ( 'NONE', #301 ) ;
#282 = EDGE_LOOP ( 'NONE', ( #230, #221 ) ) ;
#283 = PERSON_AND_ORGANIZATION ( #293, #8 ) ;
#284 = PERSON_AND_ORGANIZATION_ROLE ( 'classification_officer' ) ;
#285 = APPROVAL_PERSON_ORGANIZATION ( #88, #17, #274 ) ;
#286 = EDGE_LOOP ( 'NONE', ( #53, #48, #46, #118 ) ) ;
#287 = EDGE_CURVE ( 'NONE', #240, #217, #234, .T. ) ;
#288 = PERSON_AND_ORGANIZATION ( #293, #8 ) ;
#289 = ORIENTED_EDGE ( 'NONE', *, *, #61, .F. ) ;
#290 = DATE_AND_TIME ( #196, #222 ) ;
#291 = EDGE_LOOP ( 'NONE', ( #295, #142, #50, #98 ) ) ;
#292 = EDGE_CURVE ( 'NONE', #4, #240, #35, .T. ) ;
#293 = PERSON ( 'NEURÈENÝ', 'NEURÈENÝ', 'NEURÈENÝ', ('NEURÈENÝ'), ('NEURÈENÝ'), ('NEURÈENÝ') ) ;
#294 = AXIS2_PLACEMENT_3D ( 'NONE', #160, #87, #38 ) ;
#295 = ORIENTED_EDGE ( 'NONE', *, *, #287, .F. ) ;
#296 = DIRECTION ( 'NONE',  ( 0.000000000000000000, 0.000000000000000000, 1.000000000000000000 ) ) ;
#297 = DATE_TIME_ROLE ( 'creation_date' ) ;
#298 =( LENGTH_UNIT ( ) NAMED_UNIT ( * ) SI_UNIT ( .MILLI., .METRE. ) );
#299 = AXIS2_PLACEMENT_3D ( 'NONE', #267, #296, #180 ) ;
#300 = VECTOR ( 'NONE', #66, 1000.000000000000000 ) ;
#301 = CARTESIAN_POINT ( 'NONE',  ( -1.250000000000000000, 0.000000000000000000, 0.000000000000000000 ) ) ;
#302 = COORDINATED_UNIVERSAL_TIME_OFFSET ( 1, 0, .AHEAD. ) ;
#303 = DIRECTION ( 'NONE',  ( -0.000000000000000000, -0.000000000000000000, -1.000000000000000000 ) ) ;
#304 = DIRECTION ( 'NONE',  ( 1.000000000000000000, 0.000000000000000000, 0.000000000000000000 ) ) ;
#305 = EDGE_LOOP ( 'NONE', ( #79, #105 ) ) ;
#306 = CIRCLE ( 'NONE', #77, 0.2000000000000000944 ) ;
#307 = LOCAL_TIME ( 15, 23, 33.00000000000000000, #143 ) ;
ENDSEC;
END-ISO-10303-21;
