ISO-10303-21;
HEADER;
FILE_DESCRIPTION (( 'STEP AP203' ),
    '1' );
FILE_NAME ('56f9.STEP',
    '2022-07-07T10:37:52',
    ( '' ),
    ( '' ),
    'SwSTEP 2.0',
    'SolidWorks 2019',
    '' );
FILE_SCHEMA (( 'CONFIG_CONTROL_DESIGN' ));
ENDSEC;

DATA;
#1 = CARTESIAN_POINT ( 'NONE',  ( 0.000000000000000000, 0.000000000000000000, 126.5000000000000000 ) ) ;
#2 = DIRECTION ( 'NONE',  ( 0.000000000000000000, 0.000000000000000000, 1.000000000000000000 ) ) ;
#3 = UNCERTAINTY_MEASURE_WITH_UNIT (LENGTH_MEASURE( 1.000000000000000082E-05 ), #129, 'distance_accuracy_value', 'NONE');
#4 = CIRCLE ( 'NONE', #216, 0.2000000000000000944 ) ;
#5 = COORDINATED_UNIVERSAL_TIME_OFFSET ( 1, 0, .AHEAD. ) ;
#6 = ADVANCED_FACE ( 'NONE', ( #88 ), #284, .F. ) ;
#7 = ORIENTED_EDGE ( 'NONE', *, *, #301, .T. ) ;
#8 = PERSON_AND_ORGANIZATION ( #169, #101 ) ;
#9 = CARTESIAN_POINT ( 'NONE',  ( 0.000000000000000000, 0.000000000000000000, 126.5000000000000000 ) ) ;
#10 = APPLICATION_CONTEXT ( 'configuration controlled 3d designs of mechanical parts and assemblies' ) ;
#11 = AXIS2_PLACEMENT_3D ( 'NONE', #165, #263, #198 ) ;
#12 = ORIENTED_EDGE ( 'NONE', *, *, #207, .F. ) ;
#13 = ADVANCED_FACE ( 'NONE', ( #206 ), #137, .F. ) ;
#14 = VERTEX_POINT ( 'NONE', #203 ) ;
#15 = PERSON_AND_ORGANIZATION ( #169, #101 ) ;
#16 = ORIENTED_EDGE ( 'NONE', *, *, #176, .T. ) ;
#17 = COORDINATED_UNIVERSAL_TIME_OFFSET ( 1, 0, .AHEAD. ) ;
#18 = DIRECTION ( 'NONE',  ( 1.000000000000000000, 0.000000000000000000, -0.000000000000000000 ) ) ;
#19 = EDGE_CURVE ( 'NONE', #186, #181, #182, .T. ) ;
#20 = ORIENTED_EDGE ( 'NONE', *, *, #60, .F. ) ;
#21 = CARTESIAN_POINT ( 'NONE',  ( -2.000000000000000000, 0.000000000000000000, 0.000000000000000000 ) ) ;
#22 = CIRCLE ( 'NONE', #306, 0.8499999999999999778 ) ;
#23 = FACE_OUTER_BOUND ( 'NONE', #62, .T. ) ;
#24 = PRODUCT_DEFINITION_SHAPE ( 'NONE', 'NONE',  #158 ) ;
#25 = PRODUCT_DEFINITION_FORMATION_WITH_SPECIFIED_SOURCE ( 'LIBOVOLNÝ', '', #214, .NOT_KNOWN. ) ;
#26 = CARTESIAN_POINT ( 'NONE',  ( 0.000000000000000000, 0.000000000000000000, 126.5000000000000000 ) ) ;
#27 = APPROVAL ( #177, 'NEURÈENÝ' ) ;
#28 = DIRECTION ( 'NONE',  ( 1.000000000000000000, 0.000000000000000000, -0.000000000000000000 ) ) ;
#29 = EDGE_CURVE ( 'NONE', #89, #80, #94, .T. ) ;
#30 = COORDINATED_UNIVERSAL_TIME_OFFSET ( 1, 0, .AHEAD. ) ;
#31 = AXIS2_PLACEMENT_3D ( 'NONE', #240, #121, #264 ) ;
#32 = DATE_AND_TIME ( #266, #152 ) ;
#33 = APPROVAL_DATE_TIME ( #178, #27 ) ;
#34 = ORIENTED_EDGE ( 'NONE', *, *, #234, .F. ) ;
#35 = CARTESIAN_POINT ( 'NONE',  ( -2.000000000000000000, 0.000000000000000000, 1.500000000000000000 ) ) ;
#36 =( NAMED_UNIT ( * ) SI_UNIT ( $, .STERADIAN. ) SOLID_ANGLE_UNIT ( ) );
#37 = APPROVAL_PERSON_ORGANIZATION ( #77, #131, #125 ) ;
#38 = EDGE_LOOP ( 'NONE', ( #90, #39 ) ) ;
#39 = ORIENTED_EDGE ( 'NONE', *, *, #150, .T. ) ;
#40 = VECTOR ( 'NONE', #283, 1000.000000000000000 ) ;
#41 = ORIENTED_EDGE ( 'NONE', *, *, #207, .T. ) ;
#42 = FACE_OUTER_BOUND ( 'NONE', #151, .T. ) ;
#43 = DIRECTION ( 'NONE',  ( 1.000000000000000000, 0.000000000000000000, -0.000000000000000000 ) ) ;
#44 = FACE_OUTER_BOUND ( 'NONE', #221, .T. ) ;
#45 = CARTESIAN_POINT ( 'NONE',  ( 0.000000000000000000, 0.000000000000000000, 1.500000000000000000 ) ) ;
#46 = ADVANCED_FACE ( 'NONE', ( #64 ), #115, .T. ) ;
#47 = CYLINDRICAL_SURFACE ( 'NONE', #175, 0.8499999999999999778 ) ;
#48 = CC_DESIGN_DATE_AND_TIME_ASSIGNMENT ( #286, #51, ( #158 ) ) ;
#49 = DIRECTION ( 'NONE',  ( 0.000000000000000000, 0.000000000000000000, 1.000000000000000000 ) ) ;
#50 = DIRECTION ( 'NONE',  ( -0.000000000000000000, -0.000000000000000000, -1.000000000000000000 ) ) ;
#51 = DATE_TIME_ROLE ( 'creation_date' ) ;
#52 = ORIENTED_EDGE ( 'NONE', *, *, #171, .F. ) ;
#53 = CC_DESIGN_PERSON_AND_ORGANIZATION_ASSIGNMENT ( #8, #243, ( #25 ) ) ;
#54 = DIRECTION ( 'NONE',  ( -1.000000000000000000, 0.000000000000000000, 0.000000000000000000 ) ) ;
#55 = MECHANICAL_CONTEXT ( 'NONE', #139, 'mechanical' ) ;
#56 = ADVANCED_FACE ( 'NONE', ( #42 ), #300, .T. ) ;
#57 = CALENDAR_DATE ( 2022, 7, 7 ) ;
#58 = CC_DESIGN_APPROVAL ( #205, ( #86 ) ) ;
#59 = EDGE_LOOP ( 'NONE', ( #103, #296, #160, #289 ) ) ;
#60 = EDGE_CURVE ( 'NONE', #174, #181, #22, .T. ) ;
#61 = CALENDAR_DATE ( 2022, 7, 7 ) ;
#62 = EDGE_LOOP ( 'NONE', ( #153, #223, #117, #128 ) ) ;
#63 = PERSON_AND_ORGANIZATION ( #169, #101 ) ;
#64 = FACE_OUTER_BOUND ( 'NONE', #274, .T. ) ;
#65 = DIRECTION ( 'NONE',  ( 0.000000000000000000, 0.000000000000000000, 1.000000000000000000 ) ) ;
#66 = AXIS2_PLACEMENT_3D ( 'NONE', #163, #71, #92 ) ;
#67 = CARTESIAN_POINT ( 'NONE',  ( 0.000000000000000000, 0.000000000000000000, 0.000000000000000000 ) ) ;
#68 = CYLINDRICAL_SURFACE ( 'NONE', #31, 2.000000000000000000 ) ;
#69 = DIRECTION ( 'NONE',  ( 1.000000000000000000, 0.000000000000000000, 0.000000000000000000 ) ) ;
#70 = CC_DESIGN_APPROVAL ( #131, ( #25 ) ) ;
#71 = DIRECTION ( 'NONE',  ( 0.000000000000000000, 0.000000000000000000, 1.000000000000000000 ) ) ;
#72 = CC_DESIGN_PERSON_AND_ORGANIZATION_ASSIGNMENT ( #63, #155, ( #86 ) ) ;
#73 = DIRECTION ( 'NONE',  ( -1.000000000000000000, 0.000000000000000000, 0.000000000000000000 ) ) ;
#74 = CIRCLE ( 'NONE', #116, 1.050000000000000044 ) ;
#75 = CARTESIAN_POINT ( 'NONE',  ( 0.000000000000000000, 0.000000000000000000, 126.5000000000000000 ) ) ;
#76 = DESIGN_CONTEXT ( 'detailed design', #10, 'design' ) ;
#77 = PERSON_AND_ORGANIZATION ( #169, #101 ) ;
#78 = DIRECTION ( 'NONE',  ( 1.000000000000000000, 0.000000000000000000, 0.000000000000000000 ) ) ;
#79 = CIRCLE ( 'NONE', #302, 2.000000000000000000 ) ;
#80 = VERTEX_POINT ( 'NONE', #192 ) ;
#81 = EDGE_CURVE ( 'NONE', #14, #174, #260, .T. ) ;
#82 = CARTESIAN_POINT ( 'NONE',  ( 0.000000000000000000, 0.000000000000000000, 1.500000000000000000 ) ) ;
#83 = EDGE_CURVE ( 'NONE', #199, #80, #235, .T. ) ;
#84 = DIRECTION ( 'NONE',  ( 1.000000000000000000, 0.000000000000000000, 0.000000000000000000 ) ) ;
#85 = APPROVAL_ROLE ( '' ) ;
#86 = SECURITY_CLASSIFICATION ( '', '', #253 ) ;
#87 = EDGE_LOOP ( 'NONE', ( #228, #247 ) ) ;
#88 = FACE_OUTER_BOUND ( 'NONE', #293, .T. ) ;
#89 = VERTEX_POINT ( 'NONE', #21 ) ;
#90 = ORIENTED_EDGE ( 'NONE', *, *, #234, .T. ) ;
#91 = APPROVAL_PERSON_ORGANIZATION ( #202, #27, #218 ) ;
#92 = DIRECTION ( 'NONE',  ( 1.000000000000000000, 0.000000000000000000, 0.000000000000000000 ) ) ;
#93 = CARTESIAN_POINT ( 'NONE',  ( -0.8499999999999999778, 0.000000000000000000, 1.700000000000007061 ) ) ;
#94 = CIRCLE ( 'NONE', #246, 2.000000000000000000 ) ;
#95 = DIRECTION ( 'NONE',  ( 1.000000000000000000, 0.000000000000000000, 0.000000000000000000 ) ) ;
#96 = DIRECTION ( 'NONE',  ( 0.000000000000000000, 0.000000000000000000, 1.000000000000000000 ) ) ;
#97 = EDGE_CURVE ( 'NONE', #80, #89, #79, .T. ) ;
#98 = CARTESIAN_POINT ( 'NONE',  ( 1.050000000000000044, 0.000000000000000000, 1.700000000000007061 ) ) ;
#99 = CC_DESIGN_PERSON_AND_ORGANIZATION_ASSIGNMENT ( #291, #146, ( #214 ) ) ;
#100 = CALENDAR_DATE ( 2022, 7, 7 ) ;
#101 = ORGANIZATION ( 'NEURÈENÝ', 'NEURÈENÝ', '' ) ;
#102 = LINE ( 'NONE', #35, #185 ) ;
#103 = ORIENTED_EDGE ( 'NONE', *, *, #81, .F. ) ;
#104 = DIRECTION ( 'NONE',  ( -0.000000000000000000, -0.000000000000000000, -1.000000000000000000 ) ) ;
#105 = FACE_OUTER_BOUND ( 'NONE', #154, .T. ) ;
#106 = AXIS2_PLACEMENT_3D ( 'NONE', #111, #230, #18 ) ;
#107 = AXIS2_PLACEMENT_3D ( 'NONE', #233, #142, #164 ) ;
#108 =( NAMED_UNIT ( * ) PLANE_ANGLE_UNIT ( ) SI_UNIT ( $, .RADIAN. ) );
#109 = ORIENTED_EDGE ( 'NONE', *, *, #150, .F. ) ;
#110 = APPROVAL_STATUS ( 'not_yet_approved' ) ;
#111 = CARTESIAN_POINT ( 'NONE',  ( 0.000000000000000000, 0.000000000000000000, 0.000000000000000000 ) ) ;
#112 = CIRCLE ( 'NONE', #107, 0.8499999999999999778 ) ;
#113 = ORIENTED_EDGE ( 'NONE', *, *, #225, .T. ) ;
#114 = VERTEX_POINT ( 'NONE', #282 ) ;
#115 = CYLINDRICAL_SURFACE ( 'NONE', #172, 2.000000000000000000 ) ;
#116 = AXIS2_PLACEMENT_3D ( 'NONE', #45, #145, #144 ) ;
#117 = ORIENTED_EDGE ( 'NONE', *, *, #97, .T. ) ;
#118 = CIRCLE ( 'NONE', #66, 2.000000000000000000 ) ;
#119 = ADVANCED_FACE ( 'NONE', ( #143, #262 ), #140, .T. ) ;
#120 = CARTESIAN_POINT ( 'NONE',  ( 0.8499999999999999778, 1.040949779275250140E-16, 1.700000000000007061 ) ) ;
#121 = DIRECTION ( 'NONE',  ( -0.000000000000000000, -0.000000000000000000, -1.000000000000000000 ) ) ;
#122 = CARTESIAN_POINT ( 'NONE',  ( 2.000000000000000000, 2.449293598294706414E-16, 1.500000000000000000 ) ) ;
#123 = DIRECTION ( 'NONE',  ( 0.000000000000000000, 0.000000000000000000, 1.000000000000000000 ) ) ;
#124 = CARTESIAN_POINT ( 'NONE',  ( -1.050000000000000044, 1.285879139104720732E-16, 1.700000000000007061 ) ) ;
#125 = APPROVAL_ROLE ( '' ) ;
#126 = APPROVAL_DATE_TIME ( #32, #131 ) ;
#127 = PERSON_AND_ORGANIZATION ( #169, #101 ) ;
#128 = ORIENTED_EDGE ( 'NONE', *, *, #301, .F. ) ;
#129 =( LENGTH_UNIT ( ) NAMED_UNIT ( * ) SI_UNIT ( .MILLI., .METRE. ) );
#130 = CC_DESIGN_APPROVAL ( #27, ( #158 ) ) ;
#131 = APPROVAL ( #241, 'NEURÈENÝ' ) ;
#132 = APPROVAL_DATE_TIME ( #157, #205 ) ;
#133 = ORIENTED_EDGE ( 'NONE', *, *, #97, .F. ) ;
#134 = ORIENTED_EDGE ( 'NONE', *, *, #278, .F. ) ;
#135 = DATE_TIME_ROLE ( 'classification_date' ) ;
#136 = AXIS2_PLACEMENT_3D ( 'NONE', #219, #294, #245 ) ;
#137 = PLANE ( 'NONE',  #106 ) ;
#138 = DIRECTION ( 'NONE',  ( -0.000000000000000000, -0.000000000000000000, -1.000000000000000000 ) ) ;
#139 = APPLICATION_CONTEXT ( 'configuration controlled 3d designs of mechanical parts and assemblies' ) ;
#140 = PLANE ( 'NONE',  #208 ) ;
#141 = CC_DESIGN_DATE_AND_TIME_ASSIGNMENT ( #249, #135, ( #86 ) ) ;
#142 = DIRECTION ( 'NONE',  ( 0.000000000000000000, 0.000000000000000000, 1.000000000000000000 ) ) ;
#143 = FACE_BOUND ( 'NONE', #38, .T. ) ;
#144 = DIRECTION ( 'NONE',  ( 1.000000000000000000, 0.000000000000000000, 0.000000000000000000 ) ) ;
#145 = DIRECTION ( 'NONE',  ( -0.000000000000000000, -0.000000000000000000, -1.000000000000000000 ) ) ;
#146 = PERSON_AND_ORGANIZATION_ROLE ( 'design_owner' ) ;
#147 = APPLICATION_PROTOCOL_DEFINITION ( 'international standard', 'config_control_design', 1994, #10 ) ;
#148 = AXIS2_PLACEMENT_3D ( 'NONE', #98, #215, #213 ) ;
#149 = PERSON_AND_ORGANIZATION_ROLE ( 'creator' ) ;
#150 = EDGE_CURVE ( 'NONE', #114, #209, #74, .T. ) ;
#151 = EDGE_LOOP ( 'NONE', ( #204, #16 ) ) ;
#152 = LOCAL_TIME ( 12, 37, 52.00000000000000000, #5 ) ;
#153 = ORIENTED_EDGE ( 'NONE', *, *, #191, .F. ) ;
#154 = EDGE_LOOP ( 'NONE', ( #226, #299, #197, #229 ) ) ;
#155 = PERSON_AND_ORGANIZATION_ROLE ( 'classification_officer' ) ;
#156 = DIRECTION ( 'NONE',  ( -1.000000000000000000, 0.000000000000000000, 0.000000000000000000 ) ) ;
#157 = DATE_AND_TIME ( #295, #259 ) ;
#158 = PRODUCT_DEFINITION ( 'NEZNÁMÝ', '', #25, #76 ) ;
#159 = CIRCLE ( 'NONE', #252, 0.8499999999999999778 ) ;
#160 = ORIENTED_EDGE ( 'NONE', *, *, #19, .T. ) ;
#161 = CARTESIAN_POINT ( 'NONE',  ( 0.000000000000000000, 0.000000000000000000, 1.500000000000000000 ) ) ;
#162 = DIRECTION ( 'NONE',  ( -0.000000000000000000, -0.000000000000000000, -1.000000000000000000 ) ) ;
#163 = CARTESIAN_POINT ( 'NONE',  ( 0.000000000000000000, 0.000000000000000000, 1.500000000000000000 ) ) ;
#164 = DIRECTION ( 'NONE',  ( 1.000000000000000000, 0.000000000000000000, 0.000000000000000000 ) ) ;
#165 = CARTESIAN_POINT ( 'NONE',  ( 0.000000000000000000, 0.000000000000000000, 1.700000000000007061 ) ) ;
#166 = DIRECTION ( 'NONE',  ( 0.000000000000000000, 0.000000000000000000, 1.000000000000000000 ) ) ;
#167 = CIRCLE ( 'NONE', #190, 2.000000000000000000 ) ;
#168 = LOCAL_TIME ( 12, 37, 52.00000000000000000, #30 ) ;
#169 = PERSON ( 'NEURÈENÝ', 'NEURÈENÝ', 'NEURÈENÝ', ('NEURÈENÝ'), ('NEURÈENÝ'), ('NEURÈENÝ') ) ;
#170 = APPLICATION_PROTOCOL_DEFINITION ( 'international standard', 'config_control_design', 1994, #139 ) ;
#171 = EDGE_CURVE ( 'NONE', #181, #174, #112, .T. ) ;
#172 = AXIS2_PLACEMENT_3D ( 'NONE', #161, #138, #156 ) ;
#173 = CYLINDRICAL_SURFACE ( 'NONE', #292, 0.8499999999999999778 ) ;
#174 = VERTEX_POINT ( 'NONE', #120 ) ;
#175 = AXIS2_PLACEMENT_3D ( 'NONE', #1, #162, #73 ) ;
#176 = EDGE_CURVE ( 'NONE', #14, #186, #159, .T. ) ;
#177 = APPROVAL_STATUS ( 'not_yet_approved' ) ;
#178 = DATE_AND_TIME ( #57, #220 ) ;
#179 = DIRECTION ( 'NONE',  ( 1.000000000000000000, 0.000000000000000000, 0.000000000000000000 ) ) ;
#180 = AXIS2_PLACEMENT_3D ( 'NONE', #193, #50, #95 ) ;
#181 = VERTEX_POINT ( 'NONE', #93 ) ;
#182 = LINE ( 'NONE', #231, #273 ) ;
#183 = AXIS2_PLACEMENT_3D ( 'NONE', #184, #65, #43 ) ;
#184 = CARTESIAN_POINT ( 'NONE',  ( 0.000000000000000000, 0.000000000000000000, 126.5000000000000000 ) ) ;
#185 = VECTOR ( 'NONE', #285, 1000.000000000000000 ) ;
#186 = VERTEX_POINT ( 'NONE', #280 ) ;
#187 = DIRECTION ( 'NONE',  ( 1.000000000000000000, 0.000000000000000000, 0.000000000000000000 ) ) ;
#188 = DIRECTION ( 'NONE',  ( -0.000000000000000000, -0.000000000000000000, -1.000000000000000000 ) ) ;
#189 = CARTESIAN_POINT ( 'NONE',  ( 2.000000000000000000, 2.449293598294706414E-16, 1.500000000000000000 ) ) ;
#190 = AXIS2_PLACEMENT_3D ( 'NONE', #82, #194, #78 ) ;
#191 = EDGE_CURVE ( 'NONE', #199, #268, #118, .T. ) ;
#192 = CARTESIAN_POINT ( 'NONE',  ( 2.000000000000000000, 2.449293598294706414E-16, 0.000000000000000000 ) ) ;
#193 = CARTESIAN_POINT ( 'NONE',  ( 0.000000000000000000, 0.000000000000000000, 1.500000000000000000 ) ) ;
#194 = DIRECTION ( 'NONE',  ( 0.000000000000000000, 0.000000000000000000, 1.000000000000000000 ) ) ;
#195 = ADVANCED_FACE ( 'NONE', ( #23 ), #68, .T. ) ;
#196 = APPROVAL_PERSON_ORGANIZATION ( #15, #205, #85 ) ;
#197 = ORIENTED_EDGE ( 'NONE', *, *, #60, .T. ) ;
#198 = DIRECTION ( 'NONE',  ( 1.000000000000000000, 0.000000000000000000, 0.000000000000000000 ) ) ;
#199 = VERTEX_POINT ( 'NONE', #189 ) ;
#200 = CIRCLE ( 'NONE', #180, 1.050000000000000044 ) ;
#201 = ADVANCED_BREP_SHAPE_REPRESENTATION ( '56f9', ( #236, #136 ), #232 ) ;
#202 = PERSON_AND_ORGANIZATION ( #169, #101 ) ;
#203 = CARTESIAN_POINT ( 'NONE',  ( 0.8499999999999999778, 1.040949779275250140E-16, 126.5000000000000000 ) ) ;
#204 = ORIENTED_EDGE ( 'NONE', *, *, #254, .T. ) ;
#205 = APPROVAL ( #110, 'NEURÈENÝ' ) ;
#206 = FACE_OUTER_BOUND ( 'NONE', #303, .T. ) ;
#207 = EDGE_CURVE ( 'NONE', #174, #209, #275, .T. ) ;
#208 = AXIS2_PLACEMENT_3D ( 'NONE', #257, #2, #28 ) ;
#209 = VERTEX_POINT ( 'NONE', #307 ) ;
#210 = LOCAL_TIME ( 12, 37, 52.00000000000000000, #17 ) ;
#211 = DIRECTION ( 'NONE',  ( 0.000000000000000000, 0.000000000000000000, 1.000000000000000000 ) ) ;
#212 = CARTESIAN_POINT ( 'NONE',  ( -2.000000000000000000, 0.000000000000000000, 1.500000000000000000 ) ) ;
#213 = DIRECTION ( 'NONE',  ( 0.000000000000000000, 0.000000000000000000, -1.000000000000000000 ) ) ;
#214 = PRODUCT ( '56f9', '56f9', '', ( #55 ) ) ;
#215 = DIRECTION ( 'NONE',  ( 0.000000000000000000, -1.000000000000000000, 0.000000000000000000 ) ) ;
#216 = AXIS2_PLACEMENT_3D ( 'NONE', #124, #304, #238 ) ;
#217 = DIRECTION ( 'NONE',  ( 1.000000000000000000, 0.000000000000000000, 0.000000000000000000 ) ) ;
#218 = APPROVAL_ROLE ( '' ) ;
#219 = CARTESIAN_POINT ( 'NONE',  ( 0.000000000000000000, 0.000000000000000000, 0.000000000000000000 ) ) ;
#220 = LOCAL_TIME ( 12, 37, 52.00000000000000000, #267 ) ;
#221 = EDGE_LOOP ( 'NONE', ( #250, #20, #41, #109 ) ) ;
#222 = PERSON_AND_ORGANIZATION_ROLE ( 'design_supplier' ) ;
#223 = ORIENTED_EDGE ( 'NONE', *, *, #83, .T. ) ;
#224 = TOROIDAL_SURFACE ( 'NONE', #11, 1.050000000000000044, 0.2000000000000000111 ) ;
#225 = EDGE_CURVE ( 'NONE', #181, #114, #4, .T. ) ;
#226 = ORIENTED_EDGE ( 'NONE', *, *, #176, .F. ) ;
#227 = AXIS2_PLACEMENT_3D ( 'NONE', #256, #211, #84 ) ;
#228 = ORIENTED_EDGE ( 'NONE', *, *, #278, .T. ) ;
#229 = ORIENTED_EDGE ( 'NONE', *, *, #19, .F. ) ;
#230 = DIRECTION ( 'NONE',  ( 0.000000000000000000, 0.000000000000000000, 1.000000000000000000 ) ) ;
#231 = CARTESIAN_POINT ( 'NONE',  ( -0.8499999999999999778, 0.000000000000000000, 126.5000000000000000 ) ) ;
#232 =( GEOMETRIC_REPRESENTATION_CONTEXT ( 3 ) GLOBAL_UNCERTAINTY_ASSIGNED_CONTEXT ( ( #3 ) ) GLOBAL_UNIT_ASSIGNED_CONTEXT ( ( #129, #108, #36 ) ) REPRESENTATION_CONTEXT ( 'NONE', 'WORKASPACE' ) );
#233 = CARTESIAN_POINT ( 'NONE',  ( 0.000000000000000000, 0.000000000000000000, 1.700000000000007061 ) ) ;
#234 = EDGE_CURVE ( 'NONE', #209, #114, #200, .T. ) ;
#235 = LINE ( 'NONE', #122, #40 ) ;
#236 = MANIFOLD_SOLID_BREP ( 'Zaoblit1', #279 ) ;
#237 = CARTESIAN_POINT ( 'NONE',  ( 0.000000000000000000, 0.000000000000000000, 0.000000000000000000 ) ) ;
#238 = DIRECTION ( 'NONE',  ( -1.000000000000000000, 1.224646799147353207E-16, 0.000000000000000000 ) ) ;
#239 = AXIS2_PLACEMENT_3D ( 'NONE', #26, #96, #187 ) ;
#240 = CARTESIAN_POINT ( 'NONE',  ( 0.000000000000000000, 0.000000000000000000, 1.500000000000000000 ) ) ;
#241 = APPROVAL_STATUS ( 'not_yet_approved' ) ;
#242 = CC_DESIGN_SECURITY_CLASSIFICATION ( #86, ( #25 ) ) ;
#243 = PERSON_AND_ORGANIZATION_ROLE ( 'creator' ) ;
#244 = ADVANCED_FACE ( 'NONE', ( #281 ), #47, .T. ) ;
#245 = DIRECTION ( 'NONE',  ( 1.000000000000000000, 0.000000000000000000, 0.000000000000000000 ) ) ;
#246 = AXIS2_PLACEMENT_3D ( 'NONE', #67, #272, #179 ) ;
#247 = ORIENTED_EDGE ( 'NONE', *, *, #191, .T. ) ;
#248 = CC_DESIGN_PERSON_AND_ORGANIZATION_ASSIGNMENT ( #127, #222, ( #25 ) ) ;
#249 = DATE_AND_TIME ( #61, #210 ) ;
#250 = ORIENTED_EDGE ( 'NONE', *, *, #225, .F. ) ;
#251 = ORIENTED_EDGE ( 'NONE', *, *, #29, .F. ) ;
#252 = AXIS2_PLACEMENT_3D ( 'NONE', #75, #166, #305 ) ;
#253 = SECURITY_CLASSIFICATION_LEVEL ( 'unclassified' ) ;
#254 = EDGE_CURVE ( 'NONE', #186, #14, #297, .T. ) ;
#255 = DIRECTION ( 'NONE',  ( -0.000000000000000000, -0.000000000000000000, -1.000000000000000000 ) ) ;
#256 = CARTESIAN_POINT ( 'NONE',  ( 0.000000000000000000, 0.000000000000000000, 1.700000000000007061 ) ) ;
#257 = CARTESIAN_POINT ( 'NONE',  ( 0.000000000000000000, 0.000000000000000000, 1.500000000000000000 ) ) ;
#258 = ADVANCED_FACE ( 'NONE', ( #44 ), #224, .F. ) ;
#259 = LOCAL_TIME ( 12, 37, 52.00000000000000000, #298 ) ;
#260 = LINE ( 'NONE', #277, #290 ) ;
#261 = CC_DESIGN_PERSON_AND_ORGANIZATION_ASSIGNMENT ( #288, #149, ( #158 ) ) ;
#262 = FACE_OUTER_BOUND ( 'NONE', #87, .T. ) ;
#263 = DIRECTION ( 'NONE',  ( 0.000000000000000000, 0.000000000000000000, 1.000000000000000000 ) ) ;
#264 = DIRECTION ( 'NONE',  ( -1.000000000000000000, 0.000000000000000000, 0.000000000000000000 ) ) ;
#265 = ORIENTED_EDGE ( 'NONE', *, *, #83, .F. ) ;
#266 = CALENDAR_DATE ( 2022, 7, 7 ) ;
#267 = COORDINATED_UNIVERSAL_TIME_OFFSET ( 1, 0, .AHEAD. ) ;
#268 = VERTEX_POINT ( 'NONE', #212 ) ;
#269 = CARTESIAN_POINT ( 'NONE',  ( 0.000000000000000000, 0.000000000000000000, 1.700000000000007061 ) ) ;
#270 = ORIENTED_EDGE ( 'NONE', *, *, #29, .T. ) ;
#271 = SHAPE_DEFINITION_REPRESENTATION ( #24, #201 ) ;
#272 = DIRECTION ( 'NONE',  ( 0.000000000000000000, 0.000000000000000000, 1.000000000000000000 ) ) ;
#273 = VECTOR ( 'NONE', #255, 1000.000000000000000 ) ;
#274 = EDGE_LOOP ( 'NONE', ( #265, #134, #7, #270 ) ) ;
#275 = CIRCLE ( 'NONE', #148, 0.2000000000000000944 ) ;
#276 = PRODUCT_RELATED_PRODUCT_CATEGORY ( 'detail', '', ( #214 ) ) ;
#277 = CARTESIAN_POINT ( 'NONE',  ( 0.8499999999999999778, 1.040949779275250140E-16, 126.5000000000000000 ) ) ;
#278 = EDGE_CURVE ( 'NONE', #268, #199, #167, .T. ) ;
#279 = CLOSED_SHELL ( 'NONE', ( #6, #287, #195, #46, #119, #13, #244, #56, #258 ) ) ;
#280 = CARTESIAN_POINT ( 'NONE',  ( -0.8499999999999999778, 0.000000000000000000, 126.5000000000000000 ) ) ;
#281 = FACE_OUTER_BOUND ( 'NONE', #59, .T. ) ;
#282 = CARTESIAN_POINT ( 'NONE',  ( -1.050000000000000044, 1.285879139104720732E-16, 1.500000000000003553 ) ) ;
#283 = DIRECTION ( 'NONE',  ( -0.000000000000000000, -0.000000000000000000, -1.000000000000000000 ) ) ;
#284 = TOROIDAL_SURFACE ( 'NONE', #227, 1.050000000000000044, 0.2000000000000000111 ) ;
#285 = DIRECTION ( 'NONE',  ( -0.000000000000000000, -0.000000000000000000, -1.000000000000000000 ) ) ;
#286 = DATE_AND_TIME ( #100, #168 ) ;
#287 = ADVANCED_FACE ( 'NONE', ( #105 ), #173, .T. ) ;
#288 = PERSON_AND_ORGANIZATION ( #169, #101 ) ;
#289 = ORIENTED_EDGE ( 'NONE', *, *, #171, .T. ) ;
#290 = VECTOR ( 'NONE', #188, 1000.000000000000000 ) ;
#291 = PERSON_AND_ORGANIZATION ( #169, #101 ) ;
#292 = AXIS2_PLACEMENT_3D ( 'NONE', #9, #104, #54 ) ;
#293 = EDGE_LOOP ( 'NONE', ( #52, #113, #34, #12 ) ) ;
#294 = DIRECTION ( 'NONE',  ( 0.000000000000000000, 0.000000000000000000, 1.000000000000000000 ) ) ;
#295 = CALENDAR_DATE ( 2022, 7, 7 ) ;
#296 = ORIENTED_EDGE ( 'NONE', *, *, #254, .F. ) ;
#297 = CIRCLE ( 'NONE', #239, 0.8499999999999999778 ) ;
#298 = COORDINATED_UNIVERSAL_TIME_OFFSET ( 1, 0, .AHEAD. ) ;
#299 = ORIENTED_EDGE ( 'NONE', *, *, #81, .T. ) ;
#300 = PLANE ( 'NONE',  #183 ) ;
#301 = EDGE_CURVE ( 'NONE', #268, #89, #102, .T. ) ;
#302 = AXIS2_PLACEMENT_3D ( 'NONE', #237, #49, #69 ) ;
#303 = EDGE_LOOP ( 'NONE', ( #251, #133 ) ) ;
#304 = DIRECTION ( 'NONE',  ( 1.224646799147353207E-16, 1.000000000000000000, -0.000000000000000000 ) ) ;
#305 = DIRECTION ( 'NONE',  ( 1.000000000000000000, 0.000000000000000000, 0.000000000000000000 ) ) ;
#306 = AXIS2_PLACEMENT_3D ( 'NONE', #269, #123, #217 ) ;
#307 = CARTESIAN_POINT ( 'NONE',  ( 1.050000000000000044, 0.000000000000000000, 1.500000000000003553 ) ) ;
ENDSEC;
END-ISO-10303-21;
