ISO-10303-21;
HEADER;
FILE_DESCRIPTION (( 'STEP AP203' ),
    '1' );
FILE_NAME ('6e19.STEP',
    '2022-07-07T10:03:25',
    ( '' ),
    ( '' ),
    'SwSTEP 2.0',
    'SolidWorks 2019',
    '' );
FILE_SCHEMA (( 'CONFIG_CONTROL_DESIGN' ));
ENDSEC;

DATA;
#1 = ADVANCED_FACE ( 'NONE', ( #185 ), #115, .T. ) ;
#2 = DIRECTION ( 'NONE',  ( 1.000000000000000000, 0.000000000000000000, 0.000000000000000000 ) ) ;
#3 = AXIS2_PLACEMENT_3D ( 'NONE', #287, #123, #266 ) ;
#4 = AXIS2_PLACEMENT_3D ( 'NONE', #9, #159, #8 ) ;
#5 = DATE_TIME_ROLE ( 'classification_date' ) ;
#6 = APPROVAL ( #29, 'NEURÈENÝ' ) ;
#7 = EDGE_CURVE ( 'NONE', #237, #67, #46, .T. ) ;
#8 = DIRECTION ( 'NONE',  ( 1.000000000000000000, 0.000000000000000000, 0.000000000000000000 ) ) ;
#9 = CARTESIAN_POINT ( 'NONE',  ( 0.000000000000000000, 0.000000000000000000, 5.200000000000009948 ) ) ;
#10 = CIRCLE ( 'NONE', #182, 7.000000000000000000 ) ;
#11 = CALENDAR_DATE ( 2022, 7, 7 ) ;
#12 = CARTESIAN_POINT ( 'NONE',  ( 7.000000000000000000, 8.572527594031473190E-16, 0.000000000000000000 ) ) ;
#13 = PERSON_AND_ORGANIZATION ( #81, #125 ) ;
#14 = ADVANCED_FACE ( 'NONE', ( #119 ), #306, .T. ) ;
#15 = DIRECTION ( 'NONE',  ( 1.000000000000000000, 0.000000000000000000, 0.000000000000000000 ) ) ;
#16 = CARTESIAN_POINT ( 'NONE',  ( 0.000000000000000000, 0.000000000000000000, 5.000000000000000000 ) ) ;
#17 =( NAMED_UNIT ( * ) SI_UNIT ( $, .STERADIAN. ) SOLID_ANGLE_UNIT ( ) );
#18 = VERTEX_POINT ( 'NONE', #286 ) ;
#19 = VERTEX_POINT ( 'NONE', #74 ) ;
#20 = CARTESIAN_POINT ( 'NONE',  ( 0.000000000000000000, 0.000000000000000000, 0.000000000000000000 ) ) ;
#21 = DESIGN_CONTEXT ( 'detailed design', #85, 'design' ) ;
#22 = DIRECTION ( 'NONE',  ( 0.000000000000000000, 0.000000000000000000, 1.000000000000000000 ) ) ;
#23 = ORIENTED_EDGE ( 'NONE', *, *, #194, .F. ) ;
#24 = ADVANCED_FACE ( 'NONE', ( #51 ), #166, .F. ) ;
#25 = FACE_OUTER_BOUND ( 'NONE', #112, .T. ) ;
#26 = CC_DESIGN_PERSON_AND_ORGANIZATION_ASSIGNMENT ( #59, #87, ( #260 ) ) ;
#27 = CIRCLE ( 'NONE', #190, 4.000000000000000000 ) ;
#28 = FACE_OUTER_BOUND ( 'NONE', #305, .T. ) ;
#29 = APPROVAL_STATUS ( 'not_yet_approved' ) ;
#30 = CARTESIAN_POINT ( 'NONE',  ( 0.000000000000000000, 0.000000000000000000, 165.0000000000000000 ) ) ;
#31 = CARTESIAN_POINT ( 'NONE',  ( -4.000000000000000000, 0.000000000000000000, 5.200000000000009948 ) ) ;
#32 = EDGE_CURVE ( 'NONE', #67, #237, #205, .T. ) ;
#33 = CIRCLE ( 'NONE', #4, 4.000000000000000000 ) ;
#34 = PERSON_AND_ORGANIZATION ( #81, #125 ) ;
#35 = DIRECTION ( 'NONE',  ( 1.000000000000000000, 0.000000000000000000, 0.000000000000000000 ) ) ;
#36 = FACE_BOUND ( 'NONE', #235, .T. ) ;
#37 = DIRECTION ( 'NONE',  ( -1.000000000000000000, 0.000000000000000000, 0.000000000000000000 ) ) ;
#38 = DATE_AND_TIME ( #11, #299 ) ;
#39 = CIRCLE ( 'NONE', #121, 4.000000000000000000 ) ;
#40 = APPROVAL_DATE_TIME ( #300, #162 ) ;
#41 = CC_DESIGN_APPROVAL ( #6, ( #52 ) ) ;
#42 = APPLICATION_CONTEXT ( 'configuration controlled 3d designs of mechanical parts and assemblies' ) ;
#43 = EDGE_LOOP ( 'NONE', ( #277, #71, #241, #259 ) ) ;
#44 = EDGE_LOOP ( 'NONE', ( #146, #183 ) ) ;
#45 = CARTESIAN_POINT ( 'NONE',  ( 0.000000000000000000, 0.000000000000000000, 0.000000000000000000 ) ) ;
#46 = CIRCLE ( 'NONE', #178, 7.000000000000000000 ) ;
#47 = ORIENTED_EDGE ( 'NONE', *, *, #258, .F. ) ;
#48 = LOCAL_TIME ( 12, 3, 25.00000000000000000, #133 ) ;
#49 = ORIENTED_EDGE ( 'NONE', *, *, #278, .F. ) ;
#50 = VERTEX_POINT ( 'NONE', #148 ) ;
#51 = FACE_OUTER_BOUND ( 'NONE', #44, .T. ) ;
#52 = SECURITY_CLASSIFICATION ( '', '', #63 ) ;
#53 = CARTESIAN_POINT ( 'NONE',  ( 0.000000000000000000, 0.000000000000000000, 5.000000000000000000 ) ) ;
#54 = ADVANCED_FACE ( 'NONE', ( #25 ), #189, .T. ) ;
#55 = APPROVAL_PERSON_ORGANIZATION ( #13, #6, #215 ) ;
#56 = FACE_OUTER_BOUND ( 'NONE', #94, .T. ) ;
#57 = EDGE_CURVE ( 'NONE', #50, #204, #75, .T. ) ;
#58 = CARTESIAN_POINT ( 'NONE',  ( 4.000000000000000000, 4.898587196589412829E-16, 5.200000000000009948 ) ) ;
#59 = PERSON_AND_ORGANIZATION ( #81, #125 ) ;
#60 = DIRECTION ( 'NONE',  ( -0.000000000000000000, -0.000000000000000000, -1.000000000000000000 ) ) ;
#61 = TOROIDAL_SURFACE ( 'NONE', #288, 4.200000000000000178, 0.2000000000000000111 ) ;
#62 = DIRECTION ( 'NONE',  ( 1.000000000000000000, 0.000000000000000000, 0.000000000000000000 ) ) ;
#63 = SECURITY_CLASSIFICATION_LEVEL ( 'unclassified' ) ;
#64 = CC_DESIGN_DATE_AND_TIME_ASSIGNMENT ( #38, #103, ( #282 ) ) ;
#65 = PERSON_AND_ORGANIZATION_ROLE ( 'creator' ) ;
#66 = ORIENTED_EDGE ( 'NONE', *, *, #142, .T. ) ;
#67 = VERTEX_POINT ( 'NONE', #168 ) ;
#68 = EDGE_CURVE ( 'NONE', #19, #144, #213, .T. ) ;
#69 = EDGE_CURVE ( 'NONE', #280, #163, #244, .T. ) ;
#70 = ORIENTED_EDGE ( 'NONE', *, *, #110, .F. ) ;
#71 = ORIENTED_EDGE ( 'NONE', *, *, #88, .F. ) ;
#72 = AXIS2_PLACEMENT_3D ( 'NONE', #45, #141, #238 ) ;
#73 = ORIENTED_EDGE ( 'NONE', *, *, #68, .T. ) ;
#74 = CARTESIAN_POINT ( 'NONE',  ( -7.000000000000000000, 0.000000000000000000, 5.000000000000000000 ) ) ;
#75 = LINE ( 'NONE', #98, #154 ) ;
#76 = AXIS2_PLACEMENT_3D ( 'NONE', #275, #294, #156 ) ;
#77 = CARTESIAN_POINT ( 'NONE',  ( 0.000000000000000000, 0.000000000000000000, 5.000000000000000000 ) ) ;
#78 = AXIS2_PLACEMENT_3D ( 'NONE', #77, #226, #35 ) ;
#79 = ADVANCED_FACE ( 'NONE', ( #36, #132 ), #229, .T. ) ;
#80 = DATE_AND_TIME ( #170, #222 ) ;
#81 = PERSON ( 'NEURÈENÝ', 'NEURÈENÝ', 'NEURÈENÝ', ('NEURÈENÝ'), ('NEURÈENÝ'), ('NEURÈENÝ') ) ;
#82 = CARTESIAN_POINT ( 'NONE',  ( 0.000000000000000000, 0.000000000000000000, 165.0000000000000000 ) ) ;
#83 = COORDINATED_UNIVERSAL_TIME_OFFSET ( 1, 0, .AHEAD. ) ;
#84 = CARTESIAN_POINT ( 'NONE',  ( 7.000000000000000000, 8.572527594031473190E-16, 5.000000000000000000 ) ) ;
#85 = APPLICATION_CONTEXT ( 'configuration controlled 3d designs of mechanical parts and assemblies' ) ;
#86 = DIRECTION ( 'NONE',  ( 1.000000000000000000, 0.000000000000000000, 0.000000000000000000 ) ) ;
#87 = PERSON_AND_ORGANIZATION_ROLE ( 'design_owner' ) ;
#88 = EDGE_CURVE ( 'NONE', #18, #50, #39, .T. ) ;
#89 = DIRECTION ( 'NONE',  ( 1.000000000000000000, 0.000000000000000000, 0.000000000000000000 ) ) ;
#90 = APPROVAL_STATUS ( 'not_yet_approved' ) ;
#91 = APPROVAL_STATUS ( 'not_yet_approved' ) ;
#92 = ORIENTED_EDGE ( 'NONE', *, *, #258, .T. ) ;
#93 = VERTEX_POINT ( 'NONE', #31 ) ;
#94 = EDGE_LOOP ( 'NONE', ( #118, #257, #301, #47 ) ) ;
#95 = ORIENTED_EDGE ( 'NONE', *, *, #105, .F. ) ;
#96 = UNCERTAINTY_MEASURE_WITH_UNIT (LENGTH_MEASURE( 1.000000000000000082E-05 ), #197, 'distance_accuracy_value', 'NONE');
#97 = CARTESIAN_POINT ( 'NONE',  ( 0.000000000000000000, 0.000000000000000000, 165.0000000000000000 ) ) ;
#98 = CARTESIAN_POINT ( 'NONE',  ( 4.000000000000000000, 4.898587196589412829E-16, 165.0000000000000000 ) ) ;
#99 = AXIS2_PLACEMENT_3D ( 'NONE', #223, #100, #192 ) ;
#100 = DIRECTION ( 'NONE',  ( 1.224646799147353207E-16, 1.000000000000000000, -0.000000000000000000 ) ) ;
#101 = COORDINATED_UNIVERSAL_TIME_OFFSET ( 1, 0, .AHEAD. ) ;
#102 = CYLINDRICAL_SURFACE ( 'NONE', #155, 7.000000000000000000 ) ;
#103 = DATE_TIME_ROLE ( 'creation_date' ) ;
#104 = DIRECTION ( 'NONE',  ( 0.000000000000000000, 0.000000000000000000, -1.000000000000000000 ) ) ;
#105 = EDGE_CURVE ( 'NONE', #18, #93, #179, .T. ) ;
#106 = CARTESIAN_POINT ( 'NONE',  ( 4.200000000000000178, 0.000000000000000000, 5.200000000000009948 ) ) ;
#107 = CARTESIAN_POINT ( 'NONE',  ( 0.000000000000000000, 0.000000000000000000, 165.0000000000000000 ) ) ;
#108 = PERSON_AND_ORGANIZATION_ROLE ( 'classification_officer' ) ;
#109 = APPROVAL_PERSON_ORGANIZATION ( #195, #228, #293 ) ;
#110 = EDGE_CURVE ( 'NONE', #163, #280, #302, .T. ) ;
#111 = ADVANCED_FACE ( 'NONE', ( #218 ), #245, .F. ) ;
#112 = EDGE_LOOP ( 'NONE', ( #161, #283, #66, #206 ) ) ;
#113 = ORIENTED_EDGE ( 'NONE', *, *, #207, .F. ) ;
#114 = APPROVAL_PERSON_ORGANIZATION ( #231, #162, #202 ) ;
#115 = CYLINDRICAL_SURFACE ( 'NONE', #167, 4.000000000000000000 ) ;
#116 = PRODUCT_DEFINITION_SHAPE ( 'NONE', 'NONE',  #282 ) ;
#117 = CC_DESIGN_DATE_AND_TIME_ASSIGNMENT ( #224, #5, ( #52 ) ) ;
#118 = ORIENTED_EDGE ( 'NONE', *, *, #124, .F. ) ;
#119 = FACE_OUTER_BOUND ( 'NONE', #211, .T. ) ;
#120 = ORIENTED_EDGE ( 'NONE', *, *, #236, .F. ) ;
#121 = AXIS2_PLACEMENT_3D ( 'NONE', #107, #199, #86 ) ;
#122 = AXIS2_PLACEMENT_3D ( 'NONE', #30, #292, #251 ) ;
#123 = DIRECTION ( 'NONE',  ( -0.000000000000000000, -0.000000000000000000, -1.000000000000000000 ) ) ;
#124 = EDGE_CURVE ( 'NONE', #93, #204, #33, .T. ) ;
#125 = ORGANIZATION ( 'NEURÈENÝ', 'NEURÈENÝ', '' ) ;
#126 = DIRECTION ( 'NONE',  ( 1.000000000000000000, 0.000000000000000000, 0.000000000000000000 ) ) ;
#127 = CARTESIAN_POINT ( 'NONE',  ( -7.000000000000000000, 0.000000000000000000, 5.000000000000000000 ) ) ;
#128 = COORDINATED_UNIVERSAL_TIME_OFFSET ( 1, 0, .AHEAD. ) ;
#129 = CARTESIAN_POINT ( 'NONE',  ( 7.000000000000000000, 8.572527594031473190E-16, 5.000000000000000000 ) ) ;
#130 = PERSON_AND_ORGANIZATION ( #81, #125 ) ;
#131 = DIRECTION ( 'NONE',  ( 0.000000000000000000, 0.000000000000000000, 1.000000000000000000 ) ) ;
#132 = FACE_OUTER_BOUND ( 'NONE', #209, .T. ) ;
#133 = COORDINATED_UNIVERSAL_TIME_OFFSET ( 1, 0, .AHEAD. ) ;
#134 = CARTESIAN_POINT ( 'NONE',  ( 4.200000000000000178, 0.000000000000000000, 5.000000000000005329 ) ) ;
#135 = CALENDAR_DATE ( 2022, 7, 7 ) ;
#136 = AXIS2_PLACEMENT_3D ( 'NONE', #151, #198, #174 ) ;
#137 = EDGE_CURVE ( 'NONE', #144, #237, #247, .T. ) ;
#138 = MANIFOLD_SOLID_BREP ( 'Zaoblit1', #219 ) ;
#139 = ORIENTED_EDGE ( 'NONE', *, *, #278, .T. ) ;
#140 = ORIENTED_EDGE ( 'NONE', *, *, #88, .T. ) ;
#141 = DIRECTION ( 'NONE',  ( 0.000000000000000000, 0.000000000000000000, 1.000000000000000000 ) ) ;
#142 = EDGE_CURVE ( 'NONE', #19, #67, #269, .T. ) ;
#143 = CC_DESIGN_APPROVAL ( #228, ( #172 ) ) ;
#144 = VERTEX_POINT ( 'NONE', #129 ) ;
#145 = DIRECTION ( 'NONE',  ( -0.000000000000000000, -0.000000000000000000, -1.000000000000000000 ) ) ;
#146 = ORIENTED_EDGE ( 'NONE', *, *, #32, .F. ) ;
#147 =( GEOMETRIC_REPRESENTATION_CONTEXT ( 3 ) GLOBAL_UNCERTAINTY_ASSIGNED_CONTEXT ( ( #96 ) ) GLOBAL_UNIT_ASSIGNED_CONTEXT ( ( #197, #153, #17 ) ) REPRESENTATION_CONTEXT ( 'NONE', 'WORKASPACE' ) );
#148 = CARTESIAN_POINT ( 'NONE',  ( 4.000000000000000000, 4.898587196589412829E-16, 165.0000000000000000 ) ) ;
#149 = CC_DESIGN_PERSON_AND_ORGANIZATION_ASSIGNMENT ( #34, #276, ( #172 ) ) ;
#150 = DIRECTION ( 'NONE',  ( -0.000000000000000000, -0.000000000000000000, -1.000000000000000000 ) ) ;
#151 = CARTESIAN_POINT ( 'NONE',  ( 0.000000000000000000, 0.000000000000000000, 5.200000000000009948 ) ) ;
#152 = DIRECTION ( 'NONE',  ( 0.000000000000000000, -1.000000000000000000, 0.000000000000000000 ) ) ;
#153 =( NAMED_UNIT ( * ) PLANE_ANGLE_UNIT ( ) SI_UNIT ( $, .RADIAN. ) );
#154 = VECTOR ( 'NONE', #212, 1000.000000000000000 ) ;
#155 = AXIS2_PLACEMENT_3D ( 'NONE', #254, #271, #37 ) ;
#156 = DIRECTION ( 'NONE',  ( 1.000000000000000000, 0.000000000000000000, 0.000000000000000000 ) ) ;
#157 = CARTESIAN_POINT ( 'NONE',  ( 0.000000000000000000, 0.000000000000000000, 5.000000000000000000 ) ) ;
#158 = PERSON_AND_ORGANIZATION ( #81, #125 ) ;
#159 = DIRECTION ( 'NONE',  ( 0.000000000000000000, 0.000000000000000000, 1.000000000000000000 ) ) ;
#160 = ORIENTED_EDGE ( 'NONE', *, *, #236, .T. ) ;
#161 = ORIENTED_EDGE ( 'NONE', *, *, #137, .F. ) ;
#162 = APPROVAL ( #91, 'NEURÈENÝ' ) ;
#163 = VERTEX_POINT ( 'NONE', #176 ) ;
#164 = CARTESIAN_POINT ( 'NONE',  ( 0.000000000000000000, 0.000000000000000000, 165.0000000000000000 ) ) ;
#165 = CC_DESIGN_SECURITY_CLASSIFICATION ( #52, ( #172 ) ) ;
#166 = PLANE ( 'NONE',  #72 ) ;
#167 = AXIS2_PLACEMENT_3D ( 'NONE', #164, #145, #261 ) ;
#168 = CARTESIAN_POINT ( 'NONE',  ( -7.000000000000000000, 0.000000000000000000, 0.000000000000000000 ) ) ;
#169 = CC_DESIGN_PERSON_AND_ORGANIZATION_ASSIGNMENT ( #158, #108, ( #52 ) ) ;
#170 = CALENDAR_DATE ( 2022, 7, 7 ) ;
#171 = AXIS2_PLACEMENT_3D ( 'NONE', #157, #272, #253 ) ;
#172 = PRODUCT_DEFINITION_FORMATION_WITH_SPECIFIED_SOURCE ( 'LIBOVOLNÝ', '', #260, .NOT_KNOWN. ) ;
#173 = DIRECTION ( 'NONE',  ( 0.000000000000000000, 0.000000000000000000, 1.000000000000000000 ) ) ;
#174 = DIRECTION ( 'NONE',  ( 1.000000000000000000, 0.000000000000000000, 0.000000000000000000 ) ) ;
#175 = DATE_AND_TIME ( #180, #274 ) ;
#176 = CARTESIAN_POINT ( 'NONE',  ( -4.200000000000000178, 5.143516556418882928E-16, 5.000000000000005329 ) ) ;
#177 = DIRECTION ( 'NONE',  ( 1.000000000000000000, 0.000000000000000000, -0.000000000000000000 ) ) ;
#178 = AXIS2_PLACEMENT_3D ( 'NONE', #240, #22, #265 ) ;
#179 = LINE ( 'NONE', #289, #284 ) ;
#180 = CALENDAR_DATE ( 2022, 7, 7 ) ;
#181 = APPLICATION_PROTOCOL_DEFINITION ( 'international standard', 'config_control_design', 1994, #85 ) ;
#182 = AXIS2_PLACEMENT_3D ( 'NONE', #196, #295, #89 ) ;
#183 = ORIENTED_EDGE ( 'NONE', *, *, #7, .F. ) ;
#184 = EDGE_LOOP ( 'NONE', ( #120, #303, #281, #95 ) ) ;
#185 = FACE_OUTER_BOUND ( 'NONE', #184, .T. ) ;
#186 = ORIENTED_EDGE ( 'NONE', *, *, #110, .T. ) ;
#187 = DIRECTION ( 'NONE',  ( 0.000000000000000000, 0.000000000000000000, 1.000000000000000000 ) ) ;
#188 = EDGE_LOOP ( 'NONE', ( #113, #23, #92, #70 ) ) ;
#189 = CYLINDRICAL_SURFACE ( 'NONE', #3, 7.000000000000000000 ) ;
#190 = AXIS2_PLACEMENT_3D ( 'NONE', #82, #131, #15 ) ;
#191 = ADVANCED_FACE ( 'NONE', ( #28 ), #102, .T. ) ;
#192 = DIRECTION ( 'NONE',  ( -1.000000000000000000, 1.224646799147353454E-16, 0.000000000000000000 ) ) ;
#193 = CYLINDRICAL_SURFACE ( 'NONE', #122, 4.000000000000000000 ) ;
#194 = EDGE_CURVE ( 'NONE', #204, #93, #256, .T. ) ;
#195 = PERSON_AND_ORGANIZATION ( #81, #125 ) ;
#196 = CARTESIAN_POINT ( 'NONE',  ( 0.000000000000000000, 0.000000000000000000, 5.000000000000000000 ) ) ;
#197 =( LENGTH_UNIT ( ) NAMED_UNIT ( * ) SI_UNIT ( .MILLI., .METRE. ) );
#198 = DIRECTION ( 'NONE',  ( 0.000000000000000000, 0.000000000000000000, 1.000000000000000000 ) ) ;
#199 = DIRECTION ( 'NONE',  ( 0.000000000000000000, 0.000000000000000000, 1.000000000000000000 ) ) ;
#200 = CALENDAR_DATE ( 2022, 7, 7 ) ;
#201 = CC_DESIGN_PERSON_AND_ORGANIZATION_ASSIGNMENT ( #250, #298, ( #172 ) ) ;
#202 = APPROVAL_ROLE ( '' ) ;
#203 = ADVANCED_BREP_SHAPE_REPRESENTATION ( '6e19', ( #138, #262 ), #147 ) ;
#204 = VERTEX_POINT ( 'NONE', #58 ) ;
#205 = CIRCLE ( 'NONE', #249, 7.000000000000000000 ) ;
#206 = ORIENTED_EDGE ( 'NONE', *, *, #32, .T. ) ;
#207 = EDGE_CURVE ( 'NONE', #93, #163, #279, .T. ) ;
#208 = DIRECTION ( 'NONE',  ( 1.000000000000000000, 0.000000000000000000, -0.000000000000000000 ) ) ;
#209 = EDGE_LOOP ( 'NONE', ( #73, #139 ) ) ;
#210 = ORIENTED_EDGE ( 'NONE', *, *, #137, .T. ) ;
#211 = EDGE_LOOP ( 'NONE', ( #140, #160 ) ) ;
#212 = DIRECTION ( 'NONE',  ( -0.000000000000000000, -0.000000000000000000, -1.000000000000000000 ) ) ;
#213 = CIRCLE ( 'NONE', #243, 7.000000000000000000 ) ;
#214 = CIRCLE ( 'NONE', #291, 0.1999999999999996503 ) ;
#215 = APPROVAL_ROLE ( '' ) ;
#216 = ADVANCED_FACE ( 'NONE', ( #56 ), #61, .F. ) ;
#217 = FACE_OUTER_BOUND ( 'NONE', #43, .T. ) ;
#218 = FACE_OUTER_BOUND ( 'NONE', #188, .T. ) ;
#219 = CLOSED_SHELL ( 'NONE', ( #216, #1, #191, #54, #79, #24, #227, #14, #111 ) ) ;
#220 = SHAPE_DEFINITION_REPRESENTATION ( #116, #203 ) ;
#221 = COORDINATED_UNIVERSAL_TIME_OFFSET ( 1, 0, .AHEAD. ) ;
#222 = LOCAL_TIME ( 12, 3, 25.00000000000000000, #101 ) ;
#223 = CARTESIAN_POINT ( 'NONE',  ( -4.200000000000000178, 5.143516556418882928E-16, 5.200000000000009948 ) ) ;
#224 = DATE_AND_TIME ( #135, #48 ) ;
#225 = DIRECTION ( 'NONE',  ( 1.000000000000000000, 0.000000000000000000, 0.000000000000000000 ) ) ;
#226 = DIRECTION ( 'NONE',  ( -0.000000000000000000, -0.000000000000000000, -1.000000000000000000 ) ) ;
#227 = ADVANCED_FACE ( 'NONE', ( #217 ), #193, .T. ) ;
#228 = APPROVAL ( #90, 'NEURÈENÝ' ) ;
#229 = PLANE ( 'NONE',  #232 ) ;
#230 = CARTESIAN_POINT ( 'NONE',  ( 0.000000000000000000, 0.000000000000000000, 0.000000000000000000 ) ) ;
#231 = PERSON_AND_ORGANIZATION ( #81, #125 ) ;
#232 = AXIS2_PLACEMENT_3D ( 'NONE', #16, #297, #177 ) ;
#233 = CC_DESIGN_APPROVAL ( #162, ( #282 ) ) ;
#234 = APPLICATION_PROTOCOL_DEFINITION ( 'international standard', 'config_control_design', 1994, #42 ) ;
#235 = EDGE_LOOP ( 'NONE', ( #307, #186 ) ) ;
#236 = EDGE_CURVE ( 'NONE', #50, #18, #27, .T. ) ;
#237 = VERTEX_POINT ( 'NONE', #12 ) ;
#238 = DIRECTION ( 'NONE',  ( 1.000000000000000000, 0.000000000000000000, -0.000000000000000000 ) ) ;
#239 = VECTOR ( 'NONE', #248, 1000.000000000000000 ) ;
#240 = CARTESIAN_POINT ( 'NONE',  ( 0.000000000000000000, 0.000000000000000000, 0.000000000000000000 ) ) ;
#241 = ORIENTED_EDGE ( 'NONE', *, *, #105, .T. ) ;
#242 = DIRECTION ( 'NONE',  ( 0.000000000000000000, 0.000000000000000000, 1.000000000000000000 ) ) ;
#243 = AXIS2_PLACEMENT_3D ( 'NONE', #53, #242, #62 ) ;
#244 = CIRCLE ( 'NONE', #171, 4.200000000000000178 ) ;
#245 = TOROIDAL_SURFACE ( 'NONE', #76, 4.200000000000000178, 0.2000000000000000111 ) ;
#246 = CARTESIAN_POINT ( 'NONE',  ( 0.000000000000000000, 0.000000000000000000, 5.200000000000009948 ) ) ;
#247 = LINE ( 'NONE', #84, #267 ) ;
#248 = DIRECTION ( 'NONE',  ( -0.000000000000000000, -0.000000000000000000, -1.000000000000000000 ) ) ;
#249 = AXIS2_PLACEMENT_3D ( 'NONE', #20, #304, #2 ) ;
#250 = PERSON_AND_ORGANIZATION ( #81, #125 ) ;
#251 = DIRECTION ( 'NONE',  ( -1.000000000000000000, 0.000000000000000000, 0.000000000000000000 ) ) ;
#252 = CC_DESIGN_PERSON_AND_ORGANIZATION_ASSIGNMENT ( #130, #65, ( #282 ) ) ;
#253 = DIRECTION ( 'NONE',  ( 1.000000000000000000, 0.000000000000000000, 0.000000000000000000 ) ) ;
#254 = CARTESIAN_POINT ( 'NONE',  ( 0.000000000000000000, 0.000000000000000000, 5.000000000000000000 ) ) ;
#255 = MECHANICAL_CONTEXT ( 'NONE', #42, 'mechanical' ) ;
#256 = CIRCLE ( 'NONE', #136, 4.000000000000000000 ) ;
#257 = ORIENTED_EDGE ( 'NONE', *, *, #207, .T. ) ;
#258 = EDGE_CURVE ( 'NONE', #204, #280, #214, .T. ) ;
#259 = ORIENTED_EDGE ( 'NONE', *, *, #124, .T. ) ;
#260 = PRODUCT ( '6e19', '6e19', '', ( #255 ) ) ;
#261 = DIRECTION ( 'NONE',  ( -1.000000000000000000, 0.000000000000000000, 0.000000000000000000 ) ) ;
#262 = AXIS2_PLACEMENT_3D ( 'NONE', #230, #273, #225 ) ;
#263 = PRODUCT_RELATED_PRODUCT_CATEGORY ( 'detail', '', ( #260 ) ) ;
#264 = ORIENTED_EDGE ( 'NONE', *, *, #7, .T. ) ;
#265 = DIRECTION ( 'NONE',  ( 1.000000000000000000, 0.000000000000000000, 0.000000000000000000 ) ) ;
#266 = DIRECTION ( 'NONE',  ( -1.000000000000000000, 0.000000000000000000, 0.000000000000000000 ) ) ;
#267 = VECTOR ( 'NONE', #150, 1000.000000000000000 ) ;
#268 = APPROVAL_DATE_TIME ( #80, #6 ) ;
#269 = LINE ( 'NONE', #127, #239 ) ;
#270 = APPROVAL_DATE_TIME ( #175, #228 ) ;
#271 = DIRECTION ( 'NONE',  ( -0.000000000000000000, -0.000000000000000000, -1.000000000000000000 ) ) ;
#272 = DIRECTION ( 'NONE',  ( -0.000000000000000000, -0.000000000000000000, -1.000000000000000000 ) ) ;
#273 = DIRECTION ( 'NONE',  ( 0.000000000000000000, 0.000000000000000000, 1.000000000000000000 ) ) ;
#274 = LOCAL_TIME ( 12, 3, 25.00000000000000000, #83 ) ;
#275 = CARTESIAN_POINT ( 'NONE',  ( 0.000000000000000000, 0.000000000000000000, 5.200000000000009948 ) ) ;
#276 = PERSON_AND_ORGANIZATION_ROLE ( 'design_supplier' ) ;
#277 = ORIENTED_EDGE ( 'NONE', *, *, #57, .F. ) ;
#278 = EDGE_CURVE ( 'NONE', #144, #19, #10, .T. ) ;
#279 = CIRCLE ( 'NONE', #99, 0.1999999999999996503 ) ;
#280 = VERTEX_POINT ( 'NONE', #134 ) ;
#281 = ORIENTED_EDGE ( 'NONE', *, *, #194, .T. ) ;
#282 = PRODUCT_DEFINITION ( 'NEZNÁMÝ', '', #172, #21 ) ;
#283 = ORIENTED_EDGE ( 'NONE', *, *, #68, .F. ) ;
#284 = VECTOR ( 'NONE', #60, 1000.000000000000000 ) ;
#285 = ORIENTED_EDGE ( 'NONE', *, *, #142, .F. ) ;
#286 = CARTESIAN_POINT ( 'NONE',  ( -4.000000000000000000, 0.000000000000000000, 165.0000000000000000 ) ) ;
#287 = CARTESIAN_POINT ( 'NONE',  ( 0.000000000000000000, 0.000000000000000000, 5.000000000000000000 ) ) ;
#288 = AXIS2_PLACEMENT_3D ( 'NONE', #246, #173, #126 ) ;
#289 = CARTESIAN_POINT ( 'NONE',  ( -4.000000000000000000, 0.000000000000000000, 165.0000000000000000 ) ) ;
#290 = LOCAL_TIME ( 12, 3, 25.00000000000000000, #128 ) ;
#291 = AXIS2_PLACEMENT_3D ( 'NONE', #106, #152, #104 ) ;
#292 = DIRECTION ( 'NONE',  ( -0.000000000000000000, -0.000000000000000000, -1.000000000000000000 ) ) ;
#293 = APPROVAL_ROLE ( '' ) ;
#294 = DIRECTION ( 'NONE',  ( 0.000000000000000000, 0.000000000000000000, 1.000000000000000000 ) ) ;
#295 = DIRECTION ( 'NONE',  ( 0.000000000000000000, 0.000000000000000000, 1.000000000000000000 ) ) ;
#296 = AXIS2_PLACEMENT_3D ( 'NONE', #97, #187, #208 ) ;
#297 = DIRECTION ( 'NONE',  ( 0.000000000000000000, 0.000000000000000000, 1.000000000000000000 ) ) ;
#298 = PERSON_AND_ORGANIZATION_ROLE ( 'creator' ) ;
#299 = LOCAL_TIME ( 12, 3, 25.00000000000000000, #221 ) ;
#300 = DATE_AND_TIME ( #200, #290 ) ;
#301 = ORIENTED_EDGE ( 'NONE', *, *, #69, .F. ) ;
#302 = CIRCLE ( 'NONE', #78, 4.200000000000000178 ) ;
#303 = ORIENTED_EDGE ( 'NONE', *, *, #57, .T. ) ;
#304 = DIRECTION ( 'NONE',  ( 0.000000000000000000, 0.000000000000000000, 1.000000000000000000 ) ) ;
#305 = EDGE_LOOP ( 'NONE', ( #49, #210, #264, #285 ) ) ;
#306 = PLANE ( 'NONE',  #296 ) ;
#307 = ORIENTED_EDGE ( 'NONE', *, *, #69, .T. ) ;
ENDSEC;
END-ISO-10303-21;
