ISO-10303-21;
HEADER;
FILE_DESCRIPTION (( 'STEP AP203' ),
    '1' );
FILE_NAME ('4e0f.STEP',
    '2022-07-07T09:34:20',
    ( '' ),
    ( '' ),
    'SwSTEP 2.0',
    'SolidWorks 2019',
    '' );
FILE_SCHEMA (( 'CONFIG_CONTROL_DESIGN' ));
ENDSEC;

DATA;
#1 = DIRECTION ( 'NONE',  ( 0.000000000000000000, 0.000000000000000000, 1.000000000000000000 ) ) ;
#2 = FACE_OUTER_BOUND ( 'NONE', #172, .T. ) ;
#3 = CC_DESIGN_DATE_AND_TIME_ASSIGNMENT ( #184, #222, ( #141 ) ) ;
#4 = PERSON_AND_ORGANIZATION ( #300, #69 ) ;
#5 = ADVANCED_FACE ( 'NONE', ( #178 ), #16, .T. ) ;
#6 = VERTEX_POINT ( 'NONE', #274 ) ;
#7 = PRODUCT ( '4e0f', '4e0f', '', ( #208 ) ) ;
#8 = ORIENTED_EDGE ( 'NONE', *, *, #89, .F. ) ;
#9 = VERTEX_POINT ( 'NONE', #43 ) ;
#10 = ADVANCED_FACE ( 'NONE', ( #59, #256 ), #258, .T. ) ;
#11 = DIRECTION ( 'NONE',  ( 1.000000000000000000, 0.000000000000000000, -0.000000000000000000 ) ) ;
#12 = ORIENTED_EDGE ( 'NONE', *, *, #86, .F. ) ;
#13 = APPLICATION_CONTEXT ( 'configuration controlled 3d designs of mechanical parts and assemblies' ) ;
#14 = DIRECTION ( 'NONE',  ( 1.000000000000000000, 0.000000000000000000, 0.000000000000000000 ) ) ;
#15 = ADVANCED_FACE ( 'NONE', ( #159 ), #90, .T. ) ;
#16 = PLANE ( 'NONE',  #286 ) ;
#17 = EDGE_CURVE ( 'NONE', #105, #6, #268, .T. ) ;
#18 = CALENDAR_DATE ( 2022, 7, 7 ) ;
#19 = CARTESIAN_POINT ( 'NONE',  ( 0.000000000000000000, 0.000000000000000000, 0.000000000000000000 ) ) ;
#20 = AXIS2_PLACEMENT_3D ( 'NONE', #39, #132, #11 ) ;
#21 = EDGE_CURVE ( 'NONE', #54, #78, #60, .T. ) ;
#22 = DIRECTION ( 'NONE',  ( 0.000000000000000000, 0.000000000000000000, 1.000000000000000000 ) ) ;
#23 = CARTESIAN_POINT ( 'NONE',  ( 0.000000000000000000, 0.000000000000000000, 8.000000000000000000 ) ) ;
#24 = CARTESIAN_POINT ( 'NONE',  ( 0.000000000000000000, 0.000000000000000000, 8.000000000000000000 ) ) ;
#25 = CIRCLE ( 'NONE', #198, 10.00000000000000000 ) ;
#26 = CC_DESIGN_APPROVAL ( #214, ( #141 ) ) ;
#27 = CARTESIAN_POINT ( 'NONE',  ( -10.20000000000000107, 1.249139735130300365E-15, 8.200000000000013500 ) ) ;
#28 = DIRECTION ( 'NONE',  ( 0.000000000000000000, 0.000000000000000000, 1.000000000000000000 ) ) ;
#29 = ADVANCED_FACE ( 'NONE', ( #156 ), #193, .F. ) ;
#30 = DIRECTION ( 'NONE',  ( -0.000000000000000000, -0.000000000000000000, -1.000000000000000000 ) ) ;
#31 = CIRCLE ( 'NONE', #116, 10.20000000000000107 ) ;
#32 = EDGE_LOOP ( 'NONE', ( #200, #299, #127, #230 ) ) ;
#33 = ORIENTED_EDGE ( 'NONE', *, *, #74, .F. ) ;
#34 = COORDINATED_UNIVERSAL_TIME_OFFSET ( 1, 0, .AHEAD. ) ;
#35 = AXIS2_PLACEMENT_3D ( 'NONE', #61, #276, #160 ) ;
#36 = ORIENTED_EDGE ( 'NONE', *, *, #216, .T. ) ;
#37 = PRODUCT_DEFINITION_FORMATION_WITH_SPECIFIED_SOURCE ( 'LIBOVOLNÝ', '', #7, .NOT_KNOWN. ) ;
#38 = EDGE_LOOP ( 'NONE', ( #83, #194 ) ) ;
#39 = CARTESIAN_POINT ( 'NONE',  ( 0.000000000000000000, 0.000000000000000000, 8.000000000000000000 ) ) ;
#40 = CARTESIAN_POINT ( 'NONE',  ( 0.000000000000000000, 0.000000000000000000, 208.0000000000000284 ) ) ;
#41 = CIRCLE ( 'NONE', #158, 13.00000000000000178 ) ;
#42 = CARTESIAN_POINT ( 'NONE',  ( 0.000000000000000000, 0.000000000000000000, 8.000000000000000000 ) ) ;
#43 = CARTESIAN_POINT ( 'NONE',  ( -10.00000000000000000, 0.000000000000000000, 208.0000000000000284 ) ) ;
#44 = EDGE_CURVE ( 'NONE', #294, #9, #126, .T. ) ;
#45 = PERSON_AND_ORGANIZATION_ROLE ( 'design_supplier' ) ;
#46 = DIRECTION ( 'NONE',  ( 0.000000000000000000, 0.000000000000000000, 1.000000000000000000 ) ) ;
#47 = CYLINDRICAL_SURFACE ( 'NONE', #94, 13.00000000000000178 ) ;
#48 = LOCAL_TIME ( 11, 34, 20.00000000000000000, #34 ) ;
#49 = PLANE ( 'NONE',  #227 ) ;
#50 = DIRECTION ( 'NONE',  ( -0.000000000000000000, -0.000000000000000000, -1.000000000000000000 ) ) ;
#51 = VECTOR ( 'NONE', #215, 1000.000000000000000 ) ;
#52 = FACE_OUTER_BOUND ( 'NONE', #81, .T. ) ;
#53 = PERSON_AND_ORGANIZATION_ROLE ( 'creator' ) ;
#54 = VERTEX_POINT ( 'NONE', #303 ) ;
#55 = PRODUCT_DEFINITION_SHAPE ( 'NONE', 'NONE',  #281 ) ;
#56 = APPROVAL ( #72, 'NEURÈENÝ' ) ;
#57 = VECTOR ( 'NONE', #166, 1000.000000000000000 ) ;
#58 = ORIENTED_EDGE ( 'NONE', *, *, #91, .T. ) ;
#59 = FACE_BOUND ( 'NONE', #153, .T. ) ;
#60 = LINE ( 'NONE', #202, #293 ) ;
#61 = CARTESIAN_POINT ( 'NONE',  ( 0.000000000000000000, 0.000000000000000000, 8.200000000000013500 ) ) ;
#62 = PERSON_AND_ORGANIZATION ( #300, #69 ) ;
#63 = DIRECTION ( 'NONE',  ( -1.000000000000000000, 0.000000000000000000, 0.000000000000000000 ) ) ;
#64 = DIRECTION ( 'NONE',  ( -1.000000000000000000, 0.000000000000000000, 0.000000000000000000 ) ) ;
#65 = CARTESIAN_POINT ( 'NONE',  ( 0.000000000000000000, 0.000000000000000000, 0.000000000000000000 ) ) ;
#66 = CC_DESIGN_DATE_AND_TIME_ASSIGNMENT ( #302, #114, ( #281 ) ) ;
#67 = FACE_OUTER_BOUND ( 'NONE', #32, .T. ) ;
#68 = CIRCLE ( 'NONE', #103, 13.00000000000000178 ) ;
#69 = ORGANIZATION ( 'NEURÈENÝ', 'NEURÈENÝ', '' ) ;
#70 = CARTESIAN_POINT ( 'NONE',  ( -13.00000000000000178, 0.000000000000000000, 8.000000000000000000 ) ) ;
#71 = DIRECTION ( 'NONE',  ( 1.000000000000000000, 0.000000000000000000, 0.000000000000000000 ) ) ;
#72 = APPROVAL_STATUS ( 'not_yet_approved' ) ;
#73 = DIRECTION ( 'NONE',  ( 0.000000000000000000, 0.000000000000000000, 1.000000000000000000 ) ) ;
#74 = EDGE_CURVE ( 'NONE', #105, #107, #254, .T. ) ;
#75 = APPLICATION_PROTOCOL_DEFINITION ( 'international standard', 'config_control_design', 1994, #13 ) ;
#76 = AXIS2_PLACEMENT_3D ( 'NONE', #207, #179, #63 ) ;
#77 = CIRCLE ( 'NONE', #182, 13.00000000000000178 ) ;
#78 = VERTEX_POINT ( 'NONE', #262 ) ;
#79 = COORDINATED_UNIVERSAL_TIME_OFFSET ( 1, 0, .AHEAD. ) ;
#80 = CC_DESIGN_PERSON_AND_ORGANIZATION_ASSIGNMENT ( #211, #165, ( #141 ) ) ;
#81 = EDGE_LOOP ( 'NONE', ( #272, #8, #251, #223 ) ) ;
#82 = AXIS2_PLACEMENT_3D ( 'NONE', #42, #234, #14 ) ;
#83 = ORIENTED_EDGE ( 'NONE', *, *, #89, .T. ) ;
#84 = PERSON_AND_ORGANIZATION ( #300, #69 ) ;
#85 = ADVANCED_FACE ( 'NONE', ( #229 ), #264, .T. ) ;
#86 = EDGE_CURVE ( 'NONE', #54, #173, #41, .T. ) ;
#87 = ORIENTED_EDGE ( 'NONE', *, *, #133, .F. ) ;
#88 = VERTEX_POINT ( 'NONE', #285 ) ;
#89 = EDGE_CURVE ( 'NONE', #9, #294, #25, .T. ) ;
#90 = CYLINDRICAL_SURFACE ( 'NONE', #76, 13.00000000000000178 ) ;
#91 = EDGE_CURVE ( 'NONE', #294, #105, #185, .T. ) ;
#92 = DIRECTION ( 'NONE',  ( 1.000000000000000000, 0.000000000000000000, 0.000000000000000000 ) ) ;
#93 = CARTESIAN_POINT ( 'NONE',  ( 10.20000000000000107, 0.000000000000000000, 8.200000000000013500 ) ) ;
#94 = AXIS2_PLACEMENT_3D ( 'NONE', #213, #242, #118 ) ;
#95 = CALENDAR_DATE ( 2022, 7, 7 ) ;
#96 = CARTESIAN_POINT ( 'NONE',  ( 0.000000000000000000, 0.000000000000000000, 208.0000000000000284 ) ) ;
#97 = DIRECTION ( 'NONE',  ( 0.000000000000000000, 0.000000000000000000, 1.000000000000000000 ) ) ;
#98 = AXIS2_PLACEMENT_3D ( 'NONE', #136, #192, #195 ) ;
#99 = LINE ( 'NONE', #240, #57 ) ;
#100 = APPROVAL_DATE_TIME ( #221, #56 ) ;
#101 = ADVANCED_FACE ( 'NONE', ( #67 ), #47, .T. ) ;
#102 = CARTESIAN_POINT ( 'NONE',  ( 0.000000000000000000, 0.000000000000000000, 208.0000000000000284 ) ) ;
#103 = AXIS2_PLACEMENT_3D ( 'NONE', #19, #282, #117 ) ;
#104 = ORIENTED_EDGE ( 'NONE', *, *, #209, .T. ) ;
#105 = VERTEX_POINT ( 'NONE', #120 ) ;
#106 = VERTEX_POINT ( 'NONE', #186 ) ;
#107 = VERTEX_POINT ( 'NONE', #163 ) ;
#108 = CIRCLE ( 'NONE', #82, 10.20000000000000107 ) ;
#109 = ORIENTED_EDGE ( 'NONE', *, *, #275, .T. ) ;
#110 = AXIS2_PLACEMENT_3D ( 'NONE', #217, #73, #140 ) ;
#111 = ORIENTED_EDGE ( 'NONE', *, *, #171, .T. ) ;
#112 = APPROVAL_ROLE ( '' ) ;
#113 = DIRECTION ( 'NONE',  ( 1.000000000000000000, 0.000000000000000000, 0.000000000000000000 ) ) ;
#114 = DATE_TIME_ROLE ( 'creation_date' ) ;
#115 = CARTESIAN_POINT ( 'NONE',  ( 10.00000000000000000, 1.224646799147353256E-15, 208.0000000000000284 ) ) ;
#116 = AXIS2_PLACEMENT_3D ( 'NONE', #267, #50, #144 ) ;
#117 = DIRECTION ( 'NONE',  ( 1.000000000000000000, 0.000000000000000000, 0.000000000000000000 ) ) ;
#118 = DIRECTION ( 'NONE',  ( -1.000000000000000000, 0.000000000000000000, 0.000000000000000000 ) ) ;
#119 = EDGE_CURVE ( 'NONE', #6, #105, #297, .T. ) ;
#120 = CARTESIAN_POINT ( 'NONE',  ( 10.00000000000000000, 1.224646799147353256E-15, 8.200000000000013500 ) ) ;
#121 = CLOSED_SHELL ( 'NONE', ( #29, #85, #15, #101, #10, #176, #257, #5, #219 ) ) ;
#122 = DIRECTION ( 'NONE',  ( 1.224646799147353207E-16, 1.000000000000000000, -0.000000000000000000 ) ) ;
#123 = DIRECTION ( 'NONE',  ( 1.000000000000000000, 0.000000000000000000, 0.000000000000000000 ) ) ;
#124 = CALENDAR_DATE ( 2022, 7, 7 ) ;
#125 = CC_DESIGN_PERSON_AND_ORGANIZATION_ASSIGNMENT ( #220, #53, ( #281 ) ) ;
#126 = CIRCLE ( 'NONE', #238, 10.00000000000000000 ) ;
#127 = ORIENTED_EDGE ( 'NONE', *, *, #133, .T. ) ;
#128 = APPROVAL_STATUS ( 'not_yet_approved' ) ;
#129 = AXIS2_PLACEMENT_3D ( 'NONE', #24, #1, #241 ) ;
#130 = DIRECTION ( 'NONE',  ( 0.000000000000000000, 0.000000000000000000, 1.000000000000000000 ) ) ;
#131 = EDGE_LOOP ( 'NONE', ( #292, #205 ) ) ;
#132 = DIRECTION ( 'NONE',  ( 0.000000000000000000, 0.000000000000000000, 1.000000000000000000 ) ) ;
#133 = EDGE_CURVE ( 'NONE', #173, #88, #99, .T. ) ;
#134 = LOCAL_TIME ( 11, 34, 20.00000000000000000, #248 ) ;
#135 = CARTESIAN_POINT ( 'NONE',  ( 0.000000000000000000, 0.000000000000000000, 8.200000000000013500 ) ) ;
#136 = CARTESIAN_POINT ( 'NONE',  ( 0.000000000000000000, 0.000000000000000000, 0.000000000000000000 ) ) ;
#137 = EDGE_LOOP ( 'NONE', ( #260, #58, #270, #253 ) ) ;
#138 = SECURITY_CLASSIFICATION_LEVEL ( 'unclassified' ) ;
#139 = APPROVAL_ROLE ( '' ) ;
#140 = DIRECTION ( 'NONE',  ( 1.000000000000000000, 0.000000000000000000, 0.000000000000000000 ) ) ;
#141 = SECURITY_CLASSIFICATION ( '', '', #138 ) ;
#142 = DIRECTION ( 'NONE',  ( -0.000000000000000000, -0.000000000000000000, -1.000000000000000000 ) ) ;
#143 = CARTESIAN_POINT ( 'NONE',  ( 0.000000000000000000, 0.000000000000000000, 0.000000000000000000 ) ) ;
#144 = DIRECTION ( 'NONE',  ( 1.000000000000000000, 0.000000000000000000, 0.000000000000000000 ) ) ;
#145 = CARTESIAN_POINT ( 'NONE',  ( 0.000000000000000000, 0.000000000000000000, 8.200000000000013500 ) ) ;
#146 = APPROVAL_STATUS ( 'not_yet_approved' ) ;
#147 = CALENDAR_DATE ( 2022, 7, 7 ) ;
#148 = CC_DESIGN_APPROVAL ( #304, ( #281 ) ) ;
#149 = EDGE_CURVE ( 'NONE', #88, #78, #68, .T. ) ;
#150 = ORIENTED_EDGE ( 'NONE', *, *, #119, .F. ) ;
#151 = EDGE_CURVE ( 'NONE', #173, #54, #226, .T. ) ;
#152 = PRODUCT_RELATED_PRODUCT_CATEGORY ( 'detail', '', ( #7 ) ) ;
#153 = EDGE_LOOP ( 'NONE', ( #109, #104 ) ) ;
#154 = ORIENTED_EDGE ( 'NONE', *, *, #21, .T. ) ;
#155 = EDGE_LOOP ( 'NONE', ( #150, #36, #224, #33 ) ) ;
#156 = FACE_OUTER_BOUND ( 'NONE', #155, .T. ) ;
#157 = DESIGN_CONTEXT ( 'detailed design', #13, 'design' ) ;
#158 = AXIS2_PLACEMENT_3D ( 'NONE', #23, #97, #71 ) ;
#159 = FACE_OUTER_BOUND ( 'NONE', #235, .T. ) ;
#160 = DIRECTION ( 'NONE',  ( 1.000000000000000000, 0.000000000000000000, 0.000000000000000000 ) ) ;
#161 = APPLICATION_PROTOCOL_DEFINITION ( 'international standard', 'config_control_design', 1994, #187 ) ;
#162 = DIRECTION ( 'NONE',  ( 1.000000000000000000, 0.000000000000000000, 0.000000000000000000 ) ) ;
#163 = CARTESIAN_POINT ( 'NONE',  ( 10.20000000000000107, 0.000000000000000000, 8.000000000000007105 ) ) ;
#164 = DIRECTION ( 'NONE',  ( 1.000000000000000000, 0.000000000000000000, -0.000000000000000000 ) ) ;
#165 = PERSON_AND_ORGANIZATION_ROLE ( 'classification_officer' ) ;
#166 = DIRECTION ( 'NONE',  ( -0.000000000000000000, -0.000000000000000000, -1.000000000000000000 ) ) ;
#167 = PERSON_AND_ORGANIZATION ( #300, #69 ) ;
#168 = AXIS2_PLACEMENT_3D ( 'NONE', #27, #122, #218 ) ;
#169 = EDGE_CURVE ( 'NONE', #9, #6, #244, .T. ) ;
#170 = SHAPE_DEFINITION_REPRESENTATION ( #55, #287 ) ;
#171 = EDGE_CURVE ( 'NONE', #78, #88, #77, .T. ) ;
#172 = EDGE_LOOP ( 'NONE', ( #277, #296, #233, #295 ) ) ;
#173 = VERTEX_POINT ( 'NONE', #70 ) ;
#174 = DATE_AND_TIME ( #147, #48 ) ;
#175 = DIRECTION ( 'NONE',  ( 1.000000000000000000, 0.000000000000000000, -0.000000000000000000 ) ) ;
#176 = ADVANCED_FACE ( 'NONE', ( #266 ), #49, .F. ) ;
#177 = LOCAL_TIME ( 11, 34, 20.00000000000000000, #236 ) ;
#178 = FACE_OUTER_BOUND ( 'NONE', #38, .T. ) ;
#179 = DIRECTION ( 'NONE',  ( -0.000000000000000000, -0.000000000000000000, -1.000000000000000000 ) ) ;
#180 = DIRECTION ( 'NONE',  ( 0.000000000000000000, 0.000000000000000000, 1.000000000000000000 ) ) ;
#181 = CALENDAR_DATE ( 2022, 7, 7 ) ;
#182 = AXIS2_PLACEMENT_3D ( 'NONE', #65, #46, #307 ) ;
#183 = DIRECTION ( 'NONE',  ( 0.000000000000000000, -1.000000000000000000, 0.000000000000000000 ) ) ;
#184 = DATE_AND_TIME ( #95, #177 ) ;
#185 = LINE ( 'NONE', #115, #245 ) ;
#186 = CARTESIAN_POINT ( 'NONE',  ( -10.20000000000000107, 1.249139735130300365E-15, 8.000000000000007105 ) ) ;
#187 = APPLICATION_CONTEXT ( 'configuration controlled 3d designs of mechanical parts and assemblies' ) ;
#188 = LOCAL_TIME ( 11, 34, 20.00000000000000000, #190 ) ;
#189 = DIRECTION ( 'NONE',  ( -0.000000000000000000, -0.000000000000000000, -1.000000000000000000 ) ) ;
#190 = COORDINATED_UNIVERSAL_TIME_OFFSET ( 1, 0, .AHEAD. ) ;
#191 = DIRECTION ( 'NONE',  ( -1.000000000000000000, 0.000000000000000000, 0.000000000000000000 ) ) ;
#192 = DIRECTION ( 'NONE',  ( 0.000000000000000000, 0.000000000000000000, 1.000000000000000000 ) ) ;
#193 = TOROIDAL_SURFACE ( 'NONE', #250, 10.20000000000000107, 0.2000000000000000111 ) ;
#194 = ORIENTED_EDGE ( 'NONE', *, *, #44, .T. ) ;
#195 = DIRECTION ( 'NONE',  ( 1.000000000000000000, 0.000000000000000000, 0.000000000000000000 ) ) ;
#196 = APPROVAL_ROLE ( '' ) ;
#197 = EDGE_LOOP ( 'NONE', ( #225, #203 ) ) ;
#198 = AXIS2_PLACEMENT_3D ( 'NONE', #96, #22, #162 ) ;
#199 = APPROVAL_PERSON_ORGANIZATION ( #289, #56, #139 ) ;
#200 = ORIENTED_EDGE ( 'NONE', *, *, #21, .F. ) ;
#201 = APPROVAL_DATE_TIME ( #174, #214 ) ;
#202 = CARTESIAN_POINT ( 'NONE',  ( 13.00000000000000178, 1.592040838891559293E-15, 8.000000000000000000 ) ) ;
#203 = ORIENTED_EDGE ( 'NONE', *, *, #171, .F. ) ;
#204 = AXIS2_PLACEMENT_3D ( 'NONE', #145, #28, #123 ) ;
#205 = ORIENTED_EDGE ( 'NONE', *, *, #86, .T. ) ;
#206 = UNCERTAINTY_MEASURE_WITH_UNIT (LENGTH_MEASURE( 1.000000000000000082E-05 ), #239, 'distance_accuracy_value', 'NONE');
#207 = CARTESIAN_POINT ( 'NONE',  ( 0.000000000000000000, 0.000000000000000000, 8.000000000000000000 ) ) ;
#208 = MECHANICAL_CONTEXT ( 'NONE', #187, 'mechanical' ) ;
#209 = EDGE_CURVE ( 'NONE', #106, #107, #31, .T. ) ;
#210 = DIRECTION ( 'NONE',  ( -0.000000000000000000, -0.000000000000000000, -1.000000000000000000 ) ) ;
#211 = PERSON_AND_ORGANIZATION ( #300, #69 ) ;
#212 = APPROVAL_PERSON_ORGANIZATION ( #84, #214, #196 ) ;
#213 = CARTESIAN_POINT ( 'NONE',  ( 0.000000000000000000, 0.000000000000000000, 8.000000000000000000 ) ) ;
#214 = APPROVAL ( #128, 'NEURÈENÝ' ) ;
#215 = DIRECTION ( 'NONE',  ( -0.000000000000000000, -0.000000000000000000, -1.000000000000000000 ) ) ;
#216 = EDGE_CURVE ( 'NONE', #6, #106, #298, .T. ) ;
#217 = CARTESIAN_POINT ( 'NONE',  ( 0.000000000000000000, 0.000000000000000000, 8.200000000000013500 ) ) ;
#218 = DIRECTION ( 'NONE',  ( -1.000000000000000000, 1.224646799147353207E-16, 0.000000000000000000 ) ) ;
#219 = ADVANCED_FACE ( 'NONE', ( #2 ), #273, .F. ) ;
#220 = PERSON_AND_ORGANIZATION ( #300, #69 ) ;
#221 = DATE_AND_TIME ( #181, #255 ) ;
#222 = DATE_TIME_ROLE ( 'classification_date' ) ;
#223 = ORIENTED_EDGE ( 'NONE', *, *, #119, .T. ) ;
#224 = ORIENTED_EDGE ( 'NONE', *, *, #275, .F. ) ;
#225 = ORIENTED_EDGE ( 'NONE', *, *, #149, .F. ) ;
#226 = CIRCLE ( 'NONE', #129, 13.00000000000000178 ) ;
#227 = AXIS2_PLACEMENT_3D ( 'NONE', #143, #288, #164 ) ;
#228 = CC_DESIGN_PERSON_AND_ORGANIZATION_ASSIGNMENT ( #279, #259, ( #37 ) ) ;
#229 = FACE_OUTER_BOUND ( 'NONE', #137, .T. ) ;
#230 = ORIENTED_EDGE ( 'NONE', *, *, #149, .T. ) ;
#231 = CARTESIAN_POINT ( 'NONE',  ( 0.000000000000000000, 0.000000000000000000, 208.0000000000000284 ) ) ;
#232 = AXIS2_PLACEMENT_3D ( 'NONE', #237, #189, #191 ) ;
#233 = ORIENTED_EDGE ( 'NONE', *, *, #74, .T. ) ;
#234 = DIRECTION ( 'NONE',  ( -0.000000000000000000, -0.000000000000000000, -1.000000000000000000 ) ) ;
#235 = EDGE_LOOP ( 'NONE', ( #12, #154, #111, #87 ) ) ;
#236 = COORDINATED_UNIVERSAL_TIME_OFFSET ( 1, 0, .AHEAD. ) ;
#237 = CARTESIAN_POINT ( 'NONE',  ( 0.000000000000000000, 0.000000000000000000, 208.0000000000000284 ) ) ;
#238 = AXIS2_PLACEMENT_3D ( 'NONE', #40, #180, #113 ) ;
#239 =( LENGTH_UNIT ( ) NAMED_UNIT ( * ) SI_UNIT ( .MILLI., .METRE. ) );
#240 = CARTESIAN_POINT ( 'NONE',  ( -13.00000000000000178, 0.000000000000000000, 8.000000000000000000 ) ) ;
#241 = DIRECTION ( 'NONE',  ( 1.000000000000000000, 0.000000000000000000, 0.000000000000000000 ) ) ;
#242 = DIRECTION ( 'NONE',  ( -0.000000000000000000, -0.000000000000000000, -1.000000000000000000 ) ) ;
#243 = MANIFOLD_SOLID_BREP ( 'Zaoblit1', #121 ) ;
#244 = LINE ( 'NONE', #283, #51 ) ;
#245 = VECTOR ( 'NONE', #142, 1000.000000000000000 ) ;
#246 = CARTESIAN_POINT ( 'NONE',  ( 10.00000000000000000, 1.224646799147353256E-15, 208.0000000000000284 ) ) ;
#247 = CYLINDRICAL_SURFACE ( 'NONE', #249, 10.00000000000000000 ) ;
#248 = COORDINATED_UNIVERSAL_TIME_OFFSET ( 1, 0, .AHEAD. ) ;
#249 = AXIS2_PLACEMENT_3D ( 'NONE', #102, #30, #64 ) ;
#250 = AXIS2_PLACEMENT_3D ( 'NONE', #135, #301, #92 ) ;
#251 = ORIENTED_EDGE ( 'NONE', *, *, #169, .T. ) ;
#252 = CC_DESIGN_PERSON_AND_ORGANIZATION_ASSIGNMENT ( #4, #290, ( #7 ) ) ;
#253 = ORIENTED_EDGE ( 'NONE', *, *, #169, .F. ) ;
#254 = CIRCLE ( 'NONE', #278, 0.2000000000000005107 ) ;
#255 = LOCAL_TIME ( 11, 34, 20.00000000000000000, #79 ) ;
#256 = FACE_OUTER_BOUND ( 'NONE', #131, .T. ) ;
#257 = ADVANCED_FACE ( 'NONE', ( #52 ), #247, .T. ) ;
#258 = PLANE ( 'NONE',  #20 ) ;
#259 = PERSON_AND_ORGANIZATION_ROLE ( 'creator' ) ;
#260 = ORIENTED_EDGE ( 'NONE', *, *, #44, .F. ) ;
#261 =( NAMED_UNIT ( * ) SI_UNIT ( $, .STERADIAN. ) SOLID_ANGLE_UNIT ( ) );
#262 = CARTESIAN_POINT ( 'NONE',  ( 13.00000000000000178, 1.592040838891559293E-15, 0.000000000000000000 ) ) ;
#263 =( NAMED_UNIT ( * ) PLANE_ANGLE_UNIT ( ) SI_UNIT ( $, .RADIAN. ) );
#264 = CYLINDRICAL_SURFACE ( 'NONE', #232, 10.00000000000000000 ) ;
#265 = CC_DESIGN_APPROVAL ( #56, ( #37 ) ) ;
#266 = FACE_OUTER_BOUND ( 'NONE', #197, .T. ) ;
#267 = CARTESIAN_POINT ( 'NONE',  ( 0.000000000000000000, 0.000000000000000000, 8.000000000000000000 ) ) ;
#268 = CIRCLE ( 'NONE', #35, 10.00000000000000000 ) ;
#269 = APPROVAL_DATE_TIME ( #306, #304 ) ;
#270 = ORIENTED_EDGE ( 'NONE', *, *, #17, .T. ) ;
#271 = CC_DESIGN_PERSON_AND_ORGANIZATION_ASSIGNMENT ( #62, #45, ( #37 ) ) ;
#272 = ORIENTED_EDGE ( 'NONE', *, *, #91, .F. ) ;
#273 = TOROIDAL_SURFACE ( 'NONE', #204, 10.20000000000000107, 0.2000000000000000111 ) ;
#274 = CARTESIAN_POINT ( 'NONE',  ( -10.00000000000000000, 0.000000000000000000, 8.200000000000013500 ) ) ;
#275 = EDGE_CURVE ( 'NONE', #107, #106, #108, .T. ) ;
#276 = DIRECTION ( 'NONE',  ( 0.000000000000000000, 0.000000000000000000, 1.000000000000000000 ) ) ;
#277 = ORIENTED_EDGE ( 'NONE', *, *, #216, .F. ) ;
#278 = AXIS2_PLACEMENT_3D ( 'NONE', #93, #183, #280 ) ;
#279 = PERSON_AND_ORGANIZATION ( #300, #69 ) ;
#280 = DIRECTION ( 'NONE',  ( 0.000000000000000000, 0.000000000000000000, -1.000000000000000000 ) ) ;
#281 = PRODUCT_DEFINITION ( 'NEZNÁMÝ', '', #37, #157 ) ;
#282 = DIRECTION ( 'NONE',  ( 0.000000000000000000, 0.000000000000000000, 1.000000000000000000 ) ) ;
#283 = CARTESIAN_POINT ( 'NONE',  ( -10.00000000000000000, 0.000000000000000000, 208.0000000000000284 ) ) ;
#284 = APPROVAL_PERSON_ORGANIZATION ( #167, #304, #112 ) ;
#285 = CARTESIAN_POINT ( 'NONE',  ( -13.00000000000000178, 0.000000000000000000, 0.000000000000000000 ) ) ;
#286 = AXIS2_PLACEMENT_3D ( 'NONE', #231, #130, #175 ) ;
#287 = ADVANCED_BREP_SHAPE_REPRESENTATION ( '4e0f', ( #243, #98 ), #305 ) ;
#288 = DIRECTION ( 'NONE',  ( 0.000000000000000000, 0.000000000000000000, 1.000000000000000000 ) ) ;
#289 = PERSON_AND_ORGANIZATION ( #300, #69 ) ;
#290 = PERSON_AND_ORGANIZATION_ROLE ( 'design_owner' ) ;
#291 = CC_DESIGN_SECURITY_CLASSIFICATION ( #141, ( #37 ) ) ;
#292 = ORIENTED_EDGE ( 'NONE', *, *, #151, .T. ) ;
#293 = VECTOR ( 'NONE', #210, 1000.000000000000000 ) ;
#294 = VERTEX_POINT ( 'NONE', #246 ) ;
#295 = ORIENTED_EDGE ( 'NONE', *, *, #209, .F. ) ;
#296 = ORIENTED_EDGE ( 'NONE', *, *, #17, .F. ) ;
#297 = CIRCLE ( 'NONE', #110, 10.00000000000000000 ) ;
#298 = CIRCLE ( 'NONE', #168, 0.2000000000000005107 ) ;
#299 = ORIENTED_EDGE ( 'NONE', *, *, #151, .F. ) ;
#300 = PERSON ( 'NEURÈENÝ', 'NEURÈENÝ', 'NEURÈENÝ', ('NEURÈENÝ'), ('NEURÈENÝ'), ('NEURÈENÝ') ) ;
#301 = DIRECTION ( 'NONE',  ( 0.000000000000000000, 0.000000000000000000, 1.000000000000000000 ) ) ;
#302 = DATE_AND_TIME ( #124, #134 ) ;
#303 = CARTESIAN_POINT ( 'NONE',  ( 13.00000000000000178, 1.592040838891559293E-15, 8.000000000000000000 ) ) ;
#304 = APPROVAL ( #146, 'NEURÈENÝ' ) ;
#305 =( GEOMETRIC_REPRESENTATION_CONTEXT ( 3 ) GLOBAL_UNCERTAINTY_ASSIGNED_CONTEXT ( ( #206 ) ) GLOBAL_UNIT_ASSIGNED_CONTEXT ( ( #239, #263, #261 ) ) REPRESENTATION_CONTEXT ( 'NONE', 'WORKASPACE' ) );
#306 = DATE_AND_TIME ( #18, #188 ) ;
#307 = DIRECTION ( 'NONE',  ( 1.000000000000000000, 0.000000000000000000, 0.000000000000000000 ) ) ;
ENDSEC;
END-ISO-10303-21;
