ISO-10303-21;
HEADER;
FILE_DESCRIPTION (( 'STEP AP203' ),
    '1' );
FILE_NAME ('ee23.STEP',
    '2022-07-07T09:50:25',
    ( '' ),
    ( '' ),
    'SwSTEP 2.0',
    'SolidWorks 2019',
    '' );
FILE_SCHEMA (( 'CONFIG_CONTROL_DESIGN' ));
ENDSEC;

DATA;
#1 = DIRECTION ( 'NONE',  ( 0.000000000000000000, 0.000000000000000000, 1.000000000000000000 ) ) ;
#2 = APPLICATION_CONTEXT ( 'configuration controlled 3d designs of mechanical parts and assemblies' ) ;
#3 = DIRECTION ( 'NONE',  ( -0.000000000000000000, -0.000000000000000000, -1.000000000000000000 ) ) ;
#4 = CARTESIAN_POINT ( 'NONE',  ( 0.000000000000000000, 0.000000000000000000, 255.0000000000000000 ) ) ;
#5 = AXIS2_PLACEMENT_3D ( 'NONE', #4, #286, #270 ) ;
#6 = EDGE_CURVE ( 'NONE', #101, #179, #71, .T. ) ;
#7 = DIRECTION ( 'NONE',  ( 0.000000000000000000, 0.000000000000000000, 1.000000000000000000 ) ) ;
#8 = DATE_AND_TIME ( #202, #272 ) ;
#9 = EDGE_LOOP ( 'NONE', ( #132, #54 ) ) ;
#10 = CC_DESIGN_APPROVAL ( #168, ( #94 ) ) ;
#11 = EDGE_LOOP ( 'NONE', ( #104, #147 ) ) ;
#12 = CC_DESIGN_DATE_AND_TIME_ASSIGNMENT ( #66, #84, ( #94 ) ) ;
#13 = CARTESIAN_POINT ( 'NONE',  ( 5.450000000000001066, 0.000000000000000000, 5.200000000000009948 ) ) ;
#14 = PERSON_AND_ORGANIZATION_ROLE ( 'classification_officer' ) ;
#15 = VECTOR ( 'NONE', #229, 1000.000000000000000 ) ;
#16 = LINE ( 'NONE', #34, #211 ) ;
#17 = FACE_OUTER_BOUND ( 'NONE', #9, .T. ) ;
#18 = ADVANCED_FACE ( 'NONE', ( #200, #17 ), #88, .T. ) ;
#19 = CARTESIAN_POINT ( 'NONE',  ( 0.000000000000000000, 0.000000000000000000, 5.200000000000009948 ) ) ;
#20 = CARTESIAN_POINT ( 'NONE',  ( 0.000000000000000000, 0.000000000000000000, 5.200000000000009948 ) ) ;
#21 = LOCAL_TIME ( 11, 50, 25.00000000000000000, #138 ) ;
#22 = ADVANCED_BREP_SHAPE_REPRESENTATION ( 'ee23', ( #175, #83 ), #284 ) ;
#23 = EDGE_CURVE ( 'NONE', #278, #43, #40, .T. ) ;
#24 = CARTESIAN_POINT ( 'NONE',  ( 0.000000000000000000, 0.000000000000000000, 5.000000000000000000 ) ) ;
#25 =( NAMED_UNIT ( * ) PLANE_ANGLE_UNIT ( ) SI_UNIT ( $, .RADIAN. ) );
#26 = ORIENTED_EDGE ( 'NONE', *, *, #90, .F. ) ;
#27 = CIRCLE ( 'NONE', #161, 5.250000000000000888 ) ;
#28 = ADVANCED_FACE ( 'NONE', ( #257 ), #128, .F. ) ;
#29 = CARTESIAN_POINT ( 'NONE',  ( 0.000000000000000000, 0.000000000000000000, 0.000000000000000000 ) ) ;
#30 = EDGE_LOOP ( 'NONE', ( #280, #96, #304, #123 ) ) ;
#31 = EDGE_LOOP ( 'NONE', ( #146, #290 ) ) ;
#32 = AXIS2_PLACEMENT_3D ( 'NONE', #301, #152, #255 ) ;
#33 = EDGE_CURVE ( 'NONE', #125, #85, #248, .T. ) ;
#34 = CARTESIAN_POINT ( 'NONE',  ( 8.000000000000000000, 9.797174393178825657E-16, 5.000000000000000000 ) ) ;
#35 = DIRECTION ( 'NONE',  ( 1.000000000000000000, 0.000000000000000000, 0.000000000000000000 ) ) ;
#36 = APPROVAL_DATE_TIME ( #188, #168 ) ;
#37 = PRODUCT ( 'ee23', 'ee23', '', ( #291 ) ) ;
#38 = CARTESIAN_POINT ( 'NONE',  ( -5.250000000000000888, 0.000000000000000000, 255.0000000000000000 ) ) ;
#39 = SECURITY_CLASSIFICATION_LEVEL ( 'unclassified' ) ;
#40 = CIRCLE ( 'NONE', #189, 5.450000000000001066 ) ;
#41 = CARTESIAN_POINT ( 'NONE',  ( 0.000000000000000000, 0.000000000000000000, 0.000000000000000000 ) ) ;
#42 = AXIS2_PLACEMENT_3D ( 'NONE', #56, #217, #236 ) ;
#43 = VERTEX_POINT ( 'NONE', #67 ) ;
#44 = CARTESIAN_POINT ( 'NONE',  ( 0.000000000000000000, 0.000000000000000000, 5.000000000000000000 ) ) ;
#45 = EDGE_CURVE ( 'NONE', #179, #278, #231, .T. ) ;
#46 = SECURITY_CLASSIFICATION ( '', '', #39 ) ;
#47 = FACE_OUTER_BOUND ( 'NONE', #218, .T. ) ;
#48 = AXIS2_PLACEMENT_3D ( 'NONE', #13, #275, #112 ) ;
#49 = APPROVAL_ROLE ( '' ) ;
#50 = CIRCLE ( 'NONE', #235, 5.450000000000001066 ) ;
#51 = CARTESIAN_POINT ( 'NONE',  ( 0.000000000000000000, 0.000000000000000000, 255.0000000000000000 ) ) ;
#52 = VERTEX_POINT ( 'NONE', #224 ) ;
#53 = LINE ( 'NONE', #145, #109 ) ;
#54 = ORIENTED_EDGE ( 'NONE', *, *, #283, .T. ) ;
#55 = EDGE_CURVE ( 'NONE', #245, #85, #16, .T. ) ;
#56 = CARTESIAN_POINT ( 'NONE',  ( 0.000000000000000000, 0.000000000000000000, 5.200000000000009948 ) ) ;
#57 = APPROVAL_PERSON_ORGANIZATION ( #82, #168, #49 ) ;
#58 = PERSON_AND_ORGANIZATION ( #165, #65 ) ;
#59 = ORIENTED_EDGE ( 'NONE', *, *, #160, .T. ) ;
#60 = CC_DESIGN_PERSON_AND_ORGANIZATION_ASSIGNMENT ( #58, #14, ( #46 ) ) ;
#61 = APPROVAL_ROLE ( '' ) ;
#62 = PLANE ( 'NONE',  #100 ) ;
#63 = AXIS2_PLACEMENT_3D ( 'NONE', #199, #296, #35 ) ;
#64 = CARTESIAN_POINT ( 'NONE',  ( 0.000000000000000000, 0.000000000000000000, 5.000000000000000000 ) ) ;
#65 = ORGANIZATION ( 'NEURÈENÝ', 'NEURÈENÝ', '' ) ;
#66 = DATE_AND_TIME ( #254, #192 ) ;
#67 = CARTESIAN_POINT ( 'NONE',  ( 5.450000000000001066, 0.000000000000000000, 5.000000000000005329 ) ) ;
#68 = DATE_AND_TIME ( #178, #212 ) ;
#69 = ORIENTED_EDGE ( 'NONE', *, *, #263, .F. ) ;
#70 = APPROVAL ( #89, 'NEURÈENÝ' ) ;
#71 = LINE ( 'NONE', #249, #15 ) ;
#72 = TOROIDAL_SURFACE ( 'NONE', #259, 5.450000000000001066, 0.2000000000000000111 ) ;
#73 = EDGE_CURVE ( 'NONE', #52, #101, #154, .T. ) ;
#74 = CARTESIAN_POINT ( 'NONE',  ( -8.000000000000000000, 0.000000000000000000, 5.000000000000000000 ) ) ;
#75 = FACE_OUTER_BOUND ( 'NONE', #201, .T. ) ;
#76 = AXIS2_PLACEMENT_3D ( 'NONE', #99, #190, #140 ) ;
#77 = DIRECTION ( 'NONE',  ( -0.000000000000000000, -0.000000000000000000, -1.000000000000000000 ) ) ;
#78 = DIRECTION ( 'NONE',  ( 1.000000000000000000, 0.000000000000000000, -0.000000000000000000 ) ) ;
#79 = EDGE_CURVE ( 'NONE', #105, #43, #196, .T. ) ;
#80 =( NAMED_UNIT ( * ) SI_UNIT ( $, .STERADIAN. ) SOLID_ANGLE_UNIT ( ) );
#81 = DIRECTION ( 'NONE',  ( 1.000000000000000000, 0.000000000000000000, 0.000000000000000000 ) ) ;
#82 = PERSON_AND_ORGANIZATION ( #165, #65 ) ;
#83 = AXIS2_PLACEMENT_3D ( 'NONE', #29, #7, #242 ) ;
#84 = DATE_TIME_ROLE ( 'creation_date' ) ;
#85 = VERTEX_POINT ( 'NONE', #114 ) ;
#86 = ORIENTED_EDGE ( 'NONE', *, *, #299, .T. ) ;
#87 = PERSON_AND_ORGANIZATION_ROLE ( 'creator' ) ;
#88 = PLANE ( 'NONE',  #167 ) ;
#89 = APPROVAL_STATUS ( 'not_yet_approved' ) ;
#90 = EDGE_CURVE ( 'NONE', #101, #52, #265, .T. ) ;
#91 = ORIENTED_EDGE ( 'NONE', *, *, #90, .T. ) ;
#92 = DIRECTION ( 'NONE',  ( 0.000000000000000000, 0.000000000000000000, 1.000000000000000000 ) ) ;
#93 = DIRECTION ( 'NONE',  ( 1.000000000000000000, 0.000000000000000000, 0.000000000000000000 ) ) ;
#94 = PRODUCT_DEFINITION ( 'NEZNÁMÝ', '', #232, #246 ) ;
#95 = CARTESIAN_POINT ( 'NONE',  ( -5.250000000000000888, 0.000000000000000000, 5.200000000000009948 ) ) ;
#96 = ORIENTED_EDGE ( 'NONE', *, *, #160, .F. ) ;
#97 = FACE_OUTER_BOUND ( 'NONE', #243, .T. ) ;
#98 = CC_DESIGN_APPROVAL ( #172, ( #232 ) ) ;
#99 = CARTESIAN_POINT ( 'NONE',  ( 0.000000000000000000, 0.000000000000000000, 5.000000000000000000 ) ) ;
#100 = AXIS2_PLACEMENT_3D ( 'NONE', #204, #281, #78 ) ;
#101 = VERTEX_POINT ( 'NONE', #38 ) ;
#102 = ADVANCED_FACE ( 'NONE', ( #131 ), #62, .T. ) ;
#103 = APPROVAL_PERSON_ORGANIZATION ( #149, #172, #244 ) ;
#104 = ORIENTED_EDGE ( 'NONE', *, *, #263, .T. ) ;
#105 = VERTEX_POINT ( 'NONE', #162 ) ;
#106 = APPLICATION_PROTOCOL_DEFINITION ( 'international standard', 'config_control_design', 1994, #136 ) ;
#107 = ORIENTED_EDGE ( 'NONE', *, *, #126, .T. ) ;
#108 = DIRECTION ( 'NONE',  ( -0.000000000000000000, -0.000000000000000000, -1.000000000000000000 ) ) ;
#109 = VECTOR ( 'NONE', #142, 1000.000000000000000 ) ;
#110 = COORDINATED_UNIVERSAL_TIME_OFFSET ( 1, 0, .AHEAD. ) ;
#111 = ORIENTED_EDGE ( 'NONE', *, *, #283, .F. ) ;
#112 = DIRECTION ( 'NONE',  ( 0.000000000000000000, 0.000000000000000000, -1.000000000000000000 ) ) ;
#113 = PERSON_AND_ORGANIZATION ( #165, #65 ) ;
#114 = CARTESIAN_POINT ( 'NONE',  ( 8.000000000000000000, 9.797174393178825657E-16, 0.000000000000000000 ) ) ;
#115 = DIRECTION ( 'NONE',  ( 0.000000000000000000, 0.000000000000000000, 1.000000000000000000 ) ) ;
#116 = EDGE_CURVE ( 'NONE', #179, #105, #117, .T. ) ;
#117 = CIRCLE ( 'NONE', #174, 5.250000000000000888 ) ;
#118 = DIRECTION ( 'NONE',  ( -0.000000000000000000, -0.000000000000000000, -1.000000000000000000 ) ) ;
#119 = DIRECTION ( 'NONE',  ( 0.000000000000000000, 0.000000000000000000, 1.000000000000000000 ) ) ;
#120 = CC_DESIGN_DATE_AND_TIME_ASSIGNMENT ( #8, #297, ( #46 ) ) ;
#121 = CC_DESIGN_APPROVAL ( #70, ( #46 ) ) ;
#122 = FACE_OUTER_BOUND ( 'NONE', #30, .T. ) ;
#123 = ORIENTED_EDGE ( 'NONE', *, *, #23, .F. ) ;
#124 = DIRECTION ( 'NONE',  ( -1.000000000000000000, 0.000000000000000000, 0.000000000000000000 ) ) ;
#125 = VERTEX_POINT ( 'NONE', #264 ) ;
#126 = EDGE_CURVE ( 'NONE', #85, #125, #295, .T. ) ;
#127 = ORIENTED_EDGE ( 'NONE', *, *, #55, .T. ) ;
#128 = PLANE ( 'NONE',  #185 ) ;
#129 = DIRECTION ( 'NONE',  ( -1.000000000000000000, 1.224646799147353454E-16, 0.000000000000000000 ) ) ;
#130 = PERSON_AND_ORGANIZATION_ROLE ( 'design_supplier' ) ;
#131 = FACE_OUTER_BOUND ( 'NONE', #171, .T. ) ;
#132 = ORIENTED_EDGE ( 'NONE', *, *, #247, .T. ) ;
#133 = APPROVAL_PERSON_ORGANIZATION ( #198, #70, #61 ) ;
#134 = PRODUCT_DEFINITION_SHAPE ( 'NONE', 'NONE',  #94 ) ;
#135 = CARTESIAN_POINT ( 'NONE',  ( 0.000000000000000000, 0.000000000000000000, 5.200000000000009948 ) ) ;
#136 = APPLICATION_CONTEXT ( 'configuration controlled 3d designs of mechanical parts and assemblies' ) ;
#137 = ADVANCED_FACE ( 'NONE', ( #157 ), #72, .F. ) ;
#138 = COORDINATED_UNIVERSAL_TIME_OFFSET ( 1, 0, .AHEAD. ) ;
#139 = ADVANCED_FACE ( 'NONE', ( #97 ), #230, .T. ) ;
#140 = DIRECTION ( 'NONE',  ( 1.000000000000000000, 0.000000000000000000, 0.000000000000000000 ) ) ;
#141 =( LENGTH_UNIT ( ) NAMED_UNIT ( * ) SI_UNIT ( .MILLI., .METRE. ) );
#142 = DIRECTION ( 'NONE',  ( -0.000000000000000000, -0.000000000000000000, -1.000000000000000000 ) ) ;
#143 = CLOSED_SHELL ( 'NONE', ( #137, #226, #184, #139, #18, #28, #195, #102, #239 ) ) ;
#144 = ORIENTED_EDGE ( 'NONE', *, *, #156, .F. ) ;
#145 = CARTESIAN_POINT ( 'NONE',  ( 5.250000000000000888, 6.429395695523605139E-16, 255.0000000000000000 ) ) ;
#146 = ORIENTED_EDGE ( 'NONE', *, *, #33, .F. ) ;
#147 = ORIENTED_EDGE ( 'NONE', *, *, #23, .T. ) ;
#148 = ORIENTED_EDGE ( 'NONE', *, *, #6, .T. ) ;
#149 = PERSON_AND_ORGANIZATION ( #165, #65 ) ;
#150 = ORIENTED_EDGE ( 'NONE', *, *, #116, .T. ) ;
#151 = PERSON_AND_ORGANIZATION ( #165, #65 ) ;
#152 = DIRECTION ( 'NONE',  ( 0.000000000000000000, 0.000000000000000000, 1.000000000000000000 ) ) ;
#153 = DIRECTION ( 'NONE',  ( 1.000000000000000000, 0.000000000000000000, -0.000000000000000000 ) ) ;
#154 = CIRCLE ( 'NONE', #258, 5.250000000000000888 ) ;
#155 = DIRECTION ( 'NONE',  ( -0.000000000000000000, -0.000000000000000000, -1.000000000000000000 ) ) ;
#156 = EDGE_CURVE ( 'NONE', #197, #125, #306, .T. ) ;
#157 = FACE_OUTER_BOUND ( 'NONE', #237, .T. ) ;
#158 = CARTESIAN_POINT ( 'NONE',  ( 0.000000000000000000, 0.000000000000000000, 0.000000000000000000 ) ) ;
#159 = CYLINDRICAL_SURFACE ( 'NONE', #288, 8.000000000000000000 ) ;
#160 = EDGE_CURVE ( 'NONE', #105, #179, #27, .T. ) ;
#161 = AXIS2_PLACEMENT_3D ( 'NONE', #135, #119, #209 ) ;
#162 = CARTESIAN_POINT ( 'NONE',  ( 5.250000000000000888, 6.429395695523605139E-16, 5.200000000000009948 ) ) ;
#163 = CC_DESIGN_PERSON_AND_ORGANIZATION_ASSIGNMENT ( #271, #219, ( #37 ) ) ;
#164 = DIRECTION ( 'NONE',  ( -0.000000000000000000, -0.000000000000000000, -1.000000000000000000 ) ) ;
#165 = PERSON ( 'NEURÈENÝ', 'NEURÈENÝ', 'NEURÈENÝ', ('NEURÈENÝ'), ('NEURÈENÝ'), ('NEURÈENÝ') ) ;
#166 = DIRECTION ( 'NONE',  ( 1.000000000000000000, 0.000000000000000000, 0.000000000000000000 ) ) ;
#167 = AXIS2_PLACEMENT_3D ( 'NONE', #276, #115, #153 ) ;
#168 = APPROVAL ( #169, 'NEURÈENÝ' ) ;
#169 = APPROVAL_STATUS ( 'not_yet_approved' ) ;
#170 = PERSON_AND_ORGANIZATION ( #165, #65 ) ;
#171 = EDGE_LOOP ( 'NONE', ( #91, #238 ) ) ;
#172 = APPROVAL ( #300, 'NEURÈENÝ' ) ;
#173 = ORIENTED_EDGE ( 'NONE', *, *, #116, .F. ) ;
#174 = AXIS2_PLACEMENT_3D ( 'NONE', #19, #282, #93 ) ;
#175 = MANIFOLD_SOLID_BREP ( 'Zaoblit1', #143 ) ;
#176 = DATE_AND_TIME ( #227, #277 ) ;
#177 = DIRECTION ( 'NONE',  ( 1.000000000000000000, 0.000000000000000000, -0.000000000000000000 ) ) ;
#178 = CALENDAR_DATE ( 2022, 7, 7 ) ;
#179 = VERTEX_POINT ( 'NONE', #95 ) ;
#180 = SHAPE_DEFINITION_REPRESENTATION ( #134, #22 ) ;
#181 = DIRECTION ( 'NONE',  ( 0.000000000000000000, 0.000000000000000000, 1.000000000000000000 ) ) ;
#182 = AXIS2_PLACEMENT_3D ( 'NONE', #207, #305, #129 ) ;
#183 = AXIS2_PLACEMENT_3D ( 'NONE', #44, #118, #186 ) ;
#184 = ADVANCED_FACE ( 'NONE', ( #75 ), #159, .T. ) ;
#185 = AXIS2_PLACEMENT_3D ( 'NONE', #41, #92, #177 ) ;
#186 = DIRECTION ( 'NONE',  ( -1.000000000000000000, 0.000000000000000000, 0.000000000000000000 ) ) ;
#187 = CIRCLE ( 'NONE', #76, 8.000000000000000000 ) ;
#188 = DATE_AND_TIME ( #213, #21 ) ;
#189 = AXIS2_PLACEMENT_3D ( 'NONE', #64, #108, #253 ) ;
#190 = DIRECTION ( 'NONE',  ( 0.000000000000000000, 0.000000000000000000, 1.000000000000000000 ) ) ;
#191 = ORIENTED_EDGE ( 'NONE', *, *, #55, .F. ) ;
#192 = LOCAL_TIME ( 11, 50, 25.00000000000000000, #279 ) ;
#193 = DIRECTION ( 'NONE',  ( -1.000000000000000000, 0.000000000000000000, 0.000000000000000000 ) ) ;
#194 = ORIENTED_EDGE ( 'NONE', *, *, #247, .F. ) ;
#195 = ADVANCED_FACE ( 'NONE', ( #47 ), #285, .T. ) ;
#196 = CIRCLE ( 'NONE', #48, 0.1999999999999996503 ) ;
#197 = VERTEX_POINT ( 'NONE', #268 ) ;
#198 = PERSON_AND_ORGANIZATION ( #165, #65 ) ;
#199 = CARTESIAN_POINT ( 'NONE',  ( 0.000000000000000000, 0.000000000000000000, 0.000000000000000000 ) ) ;
#200 = FACE_BOUND ( 'NONE', #11, .T. ) ;
#201 = EDGE_LOOP ( 'NONE', ( #111, #127, #107, #144 ) ) ;
#202 = CALENDAR_DATE ( 2022, 7, 7 ) ;
#203 = AXIS2_PLACEMENT_3D ( 'NONE', #51, #3, #124 ) ;
#204 = CARTESIAN_POINT ( 'NONE',  ( 0.000000000000000000, 0.000000000000000000, 255.0000000000000000 ) ) ;
#205 = PERSON_AND_ORGANIZATION_ROLE ( 'creator' ) ;
#206 = PRODUCT_RELATED_PRODUCT_CATEGORY ( 'detail', '', ( #37 ) ) ;
#207 = CARTESIAN_POINT ( 'NONE',  ( -5.450000000000001066, 6.674325055353076224E-16, 5.200000000000009948 ) ) ;
#208 = VECTOR ( 'NONE', #77, 1000.000000000000000 ) ;
#209 = DIRECTION ( 'NONE',  ( 1.000000000000000000, 0.000000000000000000, 0.000000000000000000 ) ) ;
#210 = DIRECTION ( 'NONE',  ( 0.000000000000000000, 0.000000000000000000, 1.000000000000000000 ) ) ;
#211 = VECTOR ( 'NONE', #155, 1000.000000000000000 ) ;
#212 = LOCAL_TIME ( 11, 50, 25.00000000000000000, #251 ) ;
#213 = CALENDAR_DATE ( 2022, 7, 7 ) ;
#214 = CC_DESIGN_PERSON_AND_ORGANIZATION_ASSIGNMENT ( #151, #205, ( #232 ) ) ;
#215 = CYLINDRICAL_SURFACE ( 'NONE', #5, 5.250000000000000888 ) ;
#216 = CARTESIAN_POINT ( 'NONE',  ( 8.000000000000000000, 9.797174393178825657E-16, 5.000000000000000000 ) ) ;
#217 = DIRECTION ( 'NONE',  ( 0.000000000000000000, 0.000000000000000000, 1.000000000000000000 ) ) ;
#218 = EDGE_LOOP ( 'NONE', ( #269, #26, #148, #150 ) ) ;
#219 = PERSON_AND_ORGANIZATION_ROLE ( 'design_owner' ) ;
#220 = UNCERTAINTY_MEASURE_WITH_UNIT (LENGTH_MEASURE( 1.000000000000000082E-05 ), #141, 'distance_accuracy_value', 'NONE');
#221 = ORIENTED_EDGE ( 'NONE', *, *, #156, .T. ) ;
#222 = CC_DESIGN_SECURITY_CLASSIFICATION ( #46, ( #232 ) ) ;
#223 = DIRECTION ( 'NONE',  ( 1.000000000000000000, 0.000000000000000000, 0.000000000000000000 ) ) ;
#224 = CARTESIAN_POINT ( 'NONE',  ( 5.250000000000000888, 6.429395695523605139E-16, 255.0000000000000000 ) ) ;
#225 = ORIENTED_EDGE ( 'NONE', *, *, #73, .F. ) ;
#226 = ADVANCED_FACE ( 'NONE', ( #289 ), #215, .T. ) ;
#227 = CALENDAR_DATE ( 2022, 7, 7 ) ;
#228 = CIRCLE ( 'NONE', #250, 8.000000000000000000 ) ;
#229 = DIRECTION ( 'NONE',  ( -0.000000000000000000, -0.000000000000000000, -1.000000000000000000 ) ) ;
#230 = CYLINDRICAL_SURFACE ( 'NONE', #183, 8.000000000000000000 ) ;
#231 = CIRCLE ( 'NONE', #182, 0.1999999999999996503 ) ;
#232 = PRODUCT_DEFINITION_FORMATION_WITH_SPECIFIED_SOURCE ( 'LIBOVOLNÝ', '', #37, .NOT_KNOWN. ) ;
#233 = DIRECTION ( 'NONE',  ( -0.000000000000000000, -0.000000000000000000, -1.000000000000000000 ) ) ;
#234 = DIRECTION ( 'NONE',  ( 0.000000000000000000, 0.000000000000000000, 1.000000000000000000 ) ) ;
#235 = AXIS2_PLACEMENT_3D ( 'NONE', #266, #164, #166 ) ;
#236 = DIRECTION ( 'NONE',  ( 1.000000000000000000, 0.000000000000000000, 0.000000000000000000 ) ) ;
#237 = EDGE_LOOP ( 'NONE', ( #173, #241, #69, #294 ) ) ;
#238 = ORIENTED_EDGE ( 'NONE', *, *, #73, .T. ) ;
#239 = ADVANCED_FACE ( 'NONE', ( #122 ), #252, .F. ) ;
#240 = CARTESIAN_POINT ( 'NONE',  ( -5.450000000000001066, 6.674325055353076224E-16, 5.000000000000005329 ) ) ;
#241 = ORIENTED_EDGE ( 'NONE', *, *, #45, .T. ) ;
#242 = DIRECTION ( 'NONE',  ( 1.000000000000000000, 0.000000000000000000, 0.000000000000000000 ) ) ;
#243 = EDGE_LOOP ( 'NONE', ( #191, #194, #221, #292 ) ) ;
#244 = APPROVAL_ROLE ( '' ) ;
#245 = VERTEX_POINT ( 'NONE', #216 ) ;
#246 = DESIGN_CONTEXT ( 'detailed design', #136, 'design' ) ;
#247 = EDGE_CURVE ( 'NONE', #197, #245, #187, .T. ) ;
#248 = CIRCLE ( 'NONE', #63, 8.000000000000000000 ) ;
#249 = CARTESIAN_POINT ( 'NONE',  ( -5.250000000000000888, 0.000000000000000000, 255.0000000000000000 ) ) ;
#250 = AXIS2_PLACEMENT_3D ( 'NONE', #24, #234, #81 ) ;
#251 = COORDINATED_UNIVERSAL_TIME_OFFSET ( 1, 0, .AHEAD. ) ;
#252 = TOROIDAL_SURFACE ( 'NONE', #42, 5.450000000000001066, 0.2000000000000000111 ) ;
#253 = DIRECTION ( 'NONE',  ( 1.000000000000000000, 0.000000000000000000, 0.000000000000000000 ) ) ;
#254 = CALENDAR_DATE ( 2022, 7, 7 ) ;
#255 = DIRECTION ( 'NONE',  ( 1.000000000000000000, 0.000000000000000000, 0.000000000000000000 ) ) ;
#256 = APPROVAL_DATE_TIME ( #68, #70 ) ;
#257 = FACE_OUTER_BOUND ( 'NONE', #31, .T. ) ;
#258 = AXIS2_PLACEMENT_3D ( 'NONE', #260, #181, #223 ) ;
#259 = AXIS2_PLACEMENT_3D ( 'NONE', #20, #1, #261 ) ;
#260 = CARTESIAN_POINT ( 'NONE',  ( 0.000000000000000000, 0.000000000000000000, 255.0000000000000000 ) ) ;
#261 = DIRECTION ( 'NONE',  ( 1.000000000000000000, 0.000000000000000000, 0.000000000000000000 ) ) ;
#262 = CARTESIAN_POINT ( 'NONE',  ( 0.000000000000000000, 0.000000000000000000, 5.000000000000000000 ) ) ;
#263 = EDGE_CURVE ( 'NONE', #43, #278, #50, .T. ) ;
#264 = CARTESIAN_POINT ( 'NONE',  ( -8.000000000000000000, 0.000000000000000000, 0.000000000000000000 ) ) ;
#265 = CIRCLE ( 'NONE', #32, 5.250000000000000888 ) ;
#266 = CARTESIAN_POINT ( 'NONE',  ( 0.000000000000000000, 0.000000000000000000, 5.000000000000000000 ) ) ;
#267 = CC_DESIGN_PERSON_AND_ORGANIZATION_ASSIGNMENT ( #170, #130, ( #232 ) ) ;
#268 = CARTESIAN_POINT ( 'NONE',  ( -8.000000000000000000, 0.000000000000000000, 5.000000000000000000 ) ) ;
#269 = ORIENTED_EDGE ( 'NONE', *, *, #299, .F. ) ;
#270 = DIRECTION ( 'NONE',  ( -1.000000000000000000, 0.000000000000000000, 0.000000000000000000 ) ) ;
#271 = PERSON_AND_ORGANIZATION ( #165, #65 ) ;
#272 = LOCAL_TIME ( 11, 50, 25.00000000000000000, #273 ) ;
#273 = COORDINATED_UNIVERSAL_TIME_OFFSET ( 1, 0, .AHEAD. ) ;
#274 = CC_DESIGN_PERSON_AND_ORGANIZATION_ASSIGNMENT ( #113, #87, ( #94 ) ) ;
#275 = DIRECTION ( 'NONE',  ( 0.000000000000000000, -1.000000000000000000, 0.000000000000000000 ) ) ;
#276 = CARTESIAN_POINT ( 'NONE',  ( 0.000000000000000000, 0.000000000000000000, 5.000000000000000000 ) ) ;
#277 = LOCAL_TIME ( 11, 50, 25.00000000000000000, #110 ) ;
#278 = VERTEX_POINT ( 'NONE', #240 ) ;
#279 = COORDINATED_UNIVERSAL_TIME_OFFSET ( 1, 0, .AHEAD. ) ;
#280 = ORIENTED_EDGE ( 'NONE', *, *, #45, .F. ) ;
#281 = DIRECTION ( 'NONE',  ( 0.000000000000000000, 0.000000000000000000, 1.000000000000000000 ) ) ;
#282 = DIRECTION ( 'NONE',  ( 0.000000000000000000, 0.000000000000000000, 1.000000000000000000 ) ) ;
#283 = EDGE_CURVE ( 'NONE', #245, #197, #228, .T. ) ;
#284 =( GEOMETRIC_REPRESENTATION_CONTEXT ( 3 ) GLOBAL_UNCERTAINTY_ASSIGNED_CONTEXT ( ( #220 ) ) GLOBAL_UNIT_ASSIGNED_CONTEXT ( ( #141, #25, #80 ) ) REPRESENTATION_CONTEXT ( 'NONE', 'WORKASPACE' ) );
#285 = CYLINDRICAL_SURFACE ( 'NONE', #203, 5.250000000000000888 ) ;
#286 = DIRECTION ( 'NONE',  ( -0.000000000000000000, -0.000000000000000000, -1.000000000000000000 ) ) ;
#287 = ORIENTED_EDGE ( 'NONE', *, *, #6, .F. ) ;
#288 = AXIS2_PLACEMENT_3D ( 'NONE', #262, #233, #193 ) ;
#289 = FACE_OUTER_BOUND ( 'NONE', #298, .T. ) ;
#290 = ORIENTED_EDGE ( 'NONE', *, *, #126, .F. ) ;
#291 = MECHANICAL_CONTEXT ( 'NONE', #2, 'mechanical' ) ;
#292 = ORIENTED_EDGE ( 'NONE', *, *, #33, .T. ) ;
#293 = APPLICATION_PROTOCOL_DEFINITION ( 'international standard', 'config_control_design', 1994, #2 ) ;
#294 = ORIENTED_EDGE ( 'NONE', *, *, #79, .F. ) ;
#295 = CIRCLE ( 'NONE', #302, 8.000000000000000000 ) ;
#296 = DIRECTION ( 'NONE',  ( 0.000000000000000000, 0.000000000000000000, 1.000000000000000000 ) ) ;
#297 = DATE_TIME_ROLE ( 'classification_date' ) ;
#298 = EDGE_LOOP ( 'NONE', ( #225, #86, #59, #287 ) ) ;
#299 = EDGE_CURVE ( 'NONE', #52, #105, #53, .T. ) ;
#300 = APPROVAL_STATUS ( 'not_yet_approved' ) ;
#301 = CARTESIAN_POINT ( 'NONE',  ( 0.000000000000000000, 0.000000000000000000, 255.0000000000000000 ) ) ;
#302 = AXIS2_PLACEMENT_3D ( 'NONE', #158, #210, #307 ) ;
#303 = APPROVAL_DATE_TIME ( #176, #172 ) ;
#304 = ORIENTED_EDGE ( 'NONE', *, *, #79, .T. ) ;
#305 = DIRECTION ( 'NONE',  ( 1.224646799147353207E-16, 1.000000000000000000, -0.000000000000000000 ) ) ;
#306 = LINE ( 'NONE', #74, #208 ) ;
#307 = DIRECTION ( 'NONE',  ( 1.000000000000000000, 0.000000000000000000, 0.000000000000000000 ) ) ;
ENDSEC;
END-ISO-10303-21;
