ISO-10303-21;
HEADER;
FILE_DESCRIPTION (( 'STEP AP203' ),
    '1' );
FILE_NAME ('8560.STEP',
    '2022-07-07T10:31:47',
    ( '' ),
    ( '' ),
    'SwSTEP 2.0',
    'SolidWorks 2019',
    '' );
FILE_SCHEMA (( 'CONFIG_CONTROL_DESIGN' ));
ENDSEC;

DATA;
#1 = AXIS2_PLACEMENT_3D ( 'NONE', #245, #173, #57 ) ;
#2 = CALENDAR_DATE ( 2022, 7, 7 ) ;
#3 = EDGE_LOOP ( 'NONE', ( #76, #72, #189, #26 ) ) ;
#4 = APPROVAL_STATUS ( 'not_yet_approved' ) ;
#5 = EDGE_LOOP ( 'NONE', ( #79, #187, #58, #101 ) ) ;
#6 = CC_DESIGN_SECURITY_CLASSIFICATION ( #292, ( #92 ) ) ;
#7 = ORIENTED_EDGE ( 'NONE', *, *, #50, .F. ) ;
#8 = CC_DESIGN_PERSON_AND_ORGANIZATION_ASSIGNMENT ( #73, #209, ( #133 ) ) ;
#9 = DIRECTION ( 'NONE',  ( 0.000000000000000000, 0.000000000000000000, 1.000000000000000000 ) ) ;
#10 = FACE_OUTER_BOUND ( 'NONE', #60, .T. ) ;
#11 = AXIS2_PLACEMENT_3D ( 'NONE', #109, #200, #129 ) ;
#12 = DIRECTION ( 'NONE',  ( -0.000000000000000000, -0.000000000000000000, -1.000000000000000000 ) ) ;
#13 = ADVANCED_FACE ( 'NONE', ( #30 ), #151, .F. ) ;
#14 = CARTESIAN_POINT ( 'NONE',  ( 0.000000000000000000, 0.000000000000000000, 163.0000000000000000 ) ) ;
#15 = CARTESIAN_POINT ( 'NONE',  ( 0.000000000000000000, 0.000000000000000000, 163.0000000000000000 ) ) ;
#16 = CARTESIAN_POINT ( 'NONE',  ( -1.700000000000000400, 2.081899558550500773E-16, 3.200000000000008171 ) ) ;
#17 = AXIS2_PLACEMENT_3D ( 'NONE', #153, #226, #202 ) ;
#18 = DIRECTION ( 'NONE',  ( -0.000000000000000000, -0.000000000000000000, -1.000000000000000000 ) ) ;
#19 = CARTESIAN_POINT ( 'NONE',  ( 0.000000000000000000, 0.000000000000000000, 3.000000000000000000 ) ) ;
#20 = CARTESIAN_POINT ( 'NONE',  ( 0.000000000000000000, 0.000000000000000000, 163.0000000000000000 ) ) ;
#21 = EDGE_CURVE ( 'NONE', #59, #193, #274, .T. ) ;
#22 = VERTEX_POINT ( 'NONE', #167 ) ;
#23 = CALENDAR_DATE ( 2022, 7, 7 ) ;
#24 = AXIS2_PLACEMENT_3D ( 'NONE', #252, #232, #275 ) ;
#25 = EDGE_CURVE ( 'NONE', #22, #212, #54, .T. ) ;
#26 = ORIENTED_EDGE ( 'NONE', *, *, #127, .F. ) ;
#27 = PERSON_AND_ORGANIZATION_ROLE ( 'design_supplier' ) ;
#28 = ORIENTED_EDGE ( 'NONE', *, *, #132, .F. ) ;
#29 = ADVANCED_FACE ( 'NONE', ( #10 ), #99, .F. ) ;
#30 = FACE_OUTER_BOUND ( 'NONE', #211, .T. ) ;
#31 = CARTESIAN_POINT ( 'NONE',  ( 0.000000000000000000, 0.000000000000000000, 0.000000000000000000 ) ) ;
#32 = DIRECTION ( 'NONE',  ( 0.000000000000000000, -1.000000000000000000, 0.000000000000000000 ) ) ;
#33 = AXIS2_PLACEMENT_3D ( 'NONE', #64, #89, #88 ) ;
#34 = ORGANIZATION ( 'NEURÈENÝ', 'NEURÈENÝ', '' ) ;
#35 = DIRECTION ( 'NONE',  ( 1.000000000000000000, 0.000000000000000000, 0.000000000000000000 ) ) ;
#36 = ORIENTED_EDGE ( 'NONE', *, *, #241, .T. ) ;
#37 = DIRECTION ( 'NONE',  ( -1.000000000000000000, 0.000000000000000000, 0.000000000000000000 ) ) ;
#38 = PRODUCT_DEFINITION ( 'NEZNÁMÝ', '', #92, #199 ) ;
#39 = FACE_OUTER_BOUND ( 'NONE', #262, .T. ) ;
#40 = AXIS2_PLACEMENT_3D ( 'NONE', #68, #278, #90 ) ;
#41 = DIRECTION ( 'NONE',  ( -0.000000000000000000, -0.000000000000000000, -1.000000000000000000 ) ) ;
#42 = CC_DESIGN_PERSON_AND_ORGANIZATION_ASSIGNMENT ( #118, #160, ( #292 ) ) ;
#43 = DIRECTION ( 'NONE',  ( 0.000000000000000000, 0.000000000000000000, 1.000000000000000000 ) ) ;
#44 =( NAMED_UNIT ( * ) SI_UNIT ( $, .STERADIAN. ) SOLID_ANGLE_UNIT ( ) );
#45 = LOCAL_TIME ( 12, 31, 47.00000000000000000, #71 ) ;
#46 = LOCAL_TIME ( 12, 31, 47.00000000000000000, #238 ) ;
#47 = PERSON_AND_ORGANIZATION ( #66, #34 ) ;
#48 = AXIS2_PLACEMENT_3D ( 'NONE', #294, #125, #85 ) ;
#49 = APPLICATION_PROTOCOL_DEFINITION ( 'international standard', 'config_control_design', 1994, #196 ) ;
#50 = EDGE_CURVE ( 'NONE', #193, #119, #270, .T. ) ;
#51 = PERSON_AND_ORGANIZATION ( #66, #34 ) ;
#52 = AXIS2_PLACEMENT_3D ( 'NONE', #161, #254, #215 ) ;
#53 = DATE_TIME_ROLE ( 'classification_date' ) ;
#54 = CIRCLE ( 'NONE', #48, 3.000000000000000444 ) ;
#55 = DATE_AND_TIME ( #96, #106 ) ;
#56 = CARTESIAN_POINT ( 'NONE',  ( 3.000000000000000444, 3.673940397442060361E-16, 0.000000000000000000 ) ) ;
#57 = DIRECTION ( 'NONE',  ( 1.000000000000000000, 0.000000000000000000, 0.000000000000000000 ) ) ;
#58 = ORIENTED_EDGE ( 'NONE', *, *, #132, .T. ) ;
#59 = VERTEX_POINT ( 'NONE', #198 ) ;
#60 = EDGE_LOOP ( 'NONE', ( #272, #305, #7, #169 ) ) ;
#61 = DIRECTION ( 'NONE',  ( 0.000000000000000000, 0.000000000000000000, 1.000000000000000000 ) ) ;
#62 = CC_DESIGN_PERSON_AND_ORGANIZATION_ASSIGNMENT ( #47, #240, ( #92 ) ) ;
#63 = FACE_OUTER_BOUND ( 'NONE', #271, .T. ) ;
#64 = CARTESIAN_POINT ( 'NONE',  ( 0.000000000000000000, 0.000000000000000000, 163.0000000000000000 ) ) ;
#65 = CIRCLE ( 'NONE', #163, 0.2000000000000000944 ) ;
#66 = PERSON ( 'NEURÈENÝ', 'NEURÈENÝ', 'NEURÈENÝ', ('NEURÈENÝ'), ('NEURÈENÝ'), ('NEURÈENÝ') ) ;
#67 = LOCAL_TIME ( 12, 31, 47.00000000000000000, #303 ) ;
#68 = CARTESIAN_POINT ( 'NONE',  ( 0.000000000000000000, 0.000000000000000000, 3.200000000000008171 ) ) ;
#69 = CIRCLE ( 'NONE', #264, 3.000000000000000444 ) ;
#70 = DIRECTION ( 'NONE',  ( -0.000000000000000000, -0.000000000000000000, -1.000000000000000000 ) ) ;
#71 = COORDINATED_UNIVERSAL_TIME_OFFSET ( 1, 0, .AHEAD. ) ;
#72 = ORIENTED_EDGE ( 'NONE', *, *, #77, .T. ) ;
#73 = PERSON_AND_ORGANIZATION ( #66, #34 ) ;
#74 = APPROVAL ( #4, 'NEURÈENÝ' ) ;
#75 = DATE_AND_TIME ( #306, #67 ) ;
#76 = ORIENTED_EDGE ( 'NONE', *, *, #256, .F. ) ;
#77 = EDGE_CURVE ( 'NONE', #281, #59, #86, .T. ) ;
#78 = PERSON_AND_ORGANIZATION ( #66, #34 ) ;
#79 = ORIENTED_EDGE ( 'NONE', *, *, #290, .F. ) ;
#80 = VERTEX_POINT ( 'NONE', #267 ) ;
#81 = DIRECTION ( 'NONE',  ( 0.000000000000000000, 0.000000000000000000, 1.000000000000000000 ) ) ;
#82 = ORIENTED_EDGE ( 'NONE', *, *, #50, .T. ) ;
#83 = EDGE_CURVE ( 'NONE', #80, #107, #208, .T. ) ;
#84 = AXIS2_PLACEMENT_3D ( 'NONE', #31, #102, #126 ) ;
#85 = DIRECTION ( 'NONE',  ( 1.000000000000000000, 0.000000000000000000, 0.000000000000000000 ) ) ;
#86 = LINE ( 'NONE', #219, #214 ) ;
#87 = CARTESIAN_POINT ( 'NONE',  ( 0.000000000000000000, 0.000000000000000000, 3.200000000000008171 ) ) ;
#88 = DIRECTION ( 'NONE',  ( 1.000000000000000000, 0.000000000000000000, -0.000000000000000000 ) ) ;
#89 = DIRECTION ( 'NONE',  ( 0.000000000000000000, 0.000000000000000000, 1.000000000000000000 ) ) ;
#90 = DIRECTION ( 'NONE',  ( 1.000000000000000000, 0.000000000000000000, 0.000000000000000000 ) ) ;
#91 = AXIS2_PLACEMENT_3D ( 'NONE', #87, #206, #300 ) ;
#92 = PRODUCT_DEFINITION_FORMATION_WITH_SPECIFIED_SOURCE ( 'LIBOVOLNÝ', '', #133, .NOT_KNOWN. ) ;
#93 = DIRECTION ( 'NONE',  ( 1.000000000000000000, 0.000000000000000000, 0.000000000000000000 ) ) ;
#94 = DATE_TIME_ROLE ( 'creation_date' ) ;
#95 = ADVANCED_FACE ( 'NONE', ( #225 ), #265, .T. ) ;
#96 = CALENDAR_DATE ( 2022, 7, 7 ) ;
#97 = ORIENTED_EDGE ( 'NONE', *, *, #104, .T. ) ;
#98 = SECURITY_CLASSIFICATION_LEVEL ( 'unclassified' ) ;
#99 = TOROIDAL_SURFACE ( 'NONE', #170, 1.700000000000000400, 0.2000000000000000111 ) ;
#100 = DATE_AND_TIME ( #23, #45 ) ;
#101 = ORIENTED_EDGE ( 'NONE', *, *, #83, .T. ) ;
#102 = DIRECTION ( 'NONE',  ( 0.000000000000000000, 0.000000000000000000, 1.000000000000000000 ) ) ;
#103 = ORIENTED_EDGE ( 'NONE', *, *, #276, .F. ) ;
#104 = EDGE_CURVE ( 'NONE', #212, #22, #69, .T. ) ;
#105 = CARTESIAN_POINT ( 'NONE',  ( 1.700000000000000400, 0.000000000000000000, 3.200000000000008171 ) ) ;
#106 = LOCAL_TIME ( 12, 31, 47.00000000000000000, #304 ) ;
#107 = VERTEX_POINT ( 'NONE', #56 ) ;
#108 = DIRECTION ( 'NONE',  ( -1.000000000000000000, 0.000000000000000000, 0.000000000000000000 ) ) ;
#109 = CARTESIAN_POINT ( 'NONE',  ( 0.000000000000000000, 0.000000000000000000, 3.000000000000000000 ) ) ;
#110 = CIRCLE ( 'NONE', #40, 1.500000000000000222 ) ;
#111 = CARTESIAN_POINT ( 'NONE',  ( -3.000000000000000444, 0.000000000000000000, 3.000000000000000000 ) ) ;
#112 = PLANE ( 'NONE',  #33 ) ;
#113 = DIRECTION ( 'NONE',  ( 1.000000000000000000, 0.000000000000000000, -0.000000000000000000 ) ) ;
#114 = CARTESIAN_POINT ( 'NONE',  ( 1.700000000000000400, 0.000000000000000000, 3.000000000000004441 ) ) ;
#115 = AXIS2_PLACEMENT_3D ( 'NONE', #248, #227, #159 ) ;
#116 = CC_DESIGN_APPROVAL ( #74, ( #92 ) ) ;
#117 = APPLICATION_PROTOCOL_DEFINITION ( 'international standard', 'config_control_design', 1994, #177 ) ;
#118 = PERSON_AND_ORGANIZATION ( #66, #34 ) ;
#119 = VERTEX_POINT ( 'NONE', #145 ) ;
#120 = APPROVAL_ROLE ( '' ) ;
#121 = AXIS2_PLACEMENT_3D ( 'NONE', #14, #291, #108 ) ;
#122 = PERSON_AND_ORGANIZATION ( #66, #34 ) ;
#123 = CARTESIAN_POINT ( 'NONE',  ( 0.000000000000000000, 0.000000000000000000, 3.200000000000008171 ) ) ;
#124 = ORIENTED_EDGE ( 'NONE', *, *, #247, .T. ) ;
#125 = DIRECTION ( 'NONE',  ( 0.000000000000000000, 0.000000000000000000, 1.000000000000000000 ) ) ;
#126 = DIRECTION ( 'NONE',  ( 1.000000000000000000, 0.000000000000000000, 0.000000000000000000 ) ) ;
#127 = EDGE_CURVE ( 'NONE', #148, #150, #147, .T. ) ;
#128 = FACE_OUTER_BOUND ( 'NONE', #5, .T. ) ;
#129 = DIRECTION ( 'NONE',  ( 1.000000000000000000, 0.000000000000000000, 0.000000000000000000 ) ) ;
#130 = AXIS2_PLACEMENT_3D ( 'NONE', #20, #61, #93 ) ;
#131 = CARTESIAN_POINT ( 'NONE',  ( 3.000000000000000444, 3.673940397442060361E-16, 3.000000000000000000 ) ) ;
#132 = EDGE_CURVE ( 'NONE', #22, #80, #182, .T. ) ;
#133 = PRODUCT ( '8560', '8560', '', ( #143 ) ) ;
#134 = DIRECTION ( 'NONE',  ( -1.000000000000000000, 1.224646799147353207E-16, 0.000000000000000000 ) ) ;
#135 = DIRECTION ( 'NONE',  ( 1.000000000000000000, 0.000000000000000000, 0.000000000000000000 ) ) ;
#136 = ADVANCED_FACE ( 'NONE', ( #39 ), #273, .F. ) ;
#137 = APPROVAL_STATUS ( 'not_yet_approved' ) ;
#138 = EDGE_LOOP ( 'NONE', ( #242, #97 ) ) ;
#139 = CC_DESIGN_DATE_AND_TIME_ASSIGNMENT ( #260, #53, ( #292 ) ) ;
#140 = PERSON_AND_ORGANIZATION ( #66, #34 ) ;
#141 = CIRCLE ( 'NONE', #11, 1.700000000000000400 ) ;
#142 = CC_DESIGN_APPROVAL ( #234, ( #38 ) ) ;
#143 = MECHANICAL_CONTEXT ( 'NONE', #177, 'mechanical' ) ;
#144 = SHAPE_DEFINITION_REPRESENTATION ( #207, #258 ) ;
#145 = CARTESIAN_POINT ( 'NONE',  ( -1.700000000000000400, 2.081899558550500773E-16, 3.000000000000004441 ) ) ;
#146 = CIRCLE ( 'NONE', #91, 1.500000000000000222 ) ;
#147 = LINE ( 'NONE', #222, #192 ) ;
#148 = VERTEX_POINT ( 'NONE', #301 ) ;
#149 = DIRECTION ( 'NONE',  ( 1.000000000000000000, 0.000000000000000000, 0.000000000000000000 ) ) ;
#150 = VERTEX_POINT ( 'NONE', #279 ) ;
#151 = TOROIDAL_SURFACE ( 'NONE', #230, 1.700000000000000400, 0.2000000000000000111 ) ;
#152 = CYLINDRICAL_SURFACE ( 'NONE', #115, 3.000000000000000444 ) ;
#153 = CARTESIAN_POINT ( 'NONE',  ( 0.000000000000000000, 0.000000000000000000, 163.0000000000000000 ) ) ;
#154 = EDGE_CURVE ( 'NONE', #59, #150, #110, .T. ) ;
#155 = CYLINDRICAL_SURFACE ( 'NONE', #17, 1.500000000000000222 ) ;
#156 = AXIS2_PLACEMENT_3D ( 'NONE', #105, #32, #243 ) ;
#157 = DIRECTION ( 'NONE',  ( 0.000000000000000000, 0.000000000000000000, 1.000000000000000000 ) ) ;
#158 = DIRECTION ( 'NONE',  ( 0.000000000000000000, 0.000000000000000000, 1.000000000000000000 ) ) ;
#159 = DIRECTION ( 'NONE',  ( -1.000000000000000000, 0.000000000000000000, 0.000000000000000000 ) ) ;
#160 = PERSON_AND_ORGANIZATION_ROLE ( 'classification_officer' ) ;
#161 = CARTESIAN_POINT ( 'NONE',  ( 0.000000000000000000, 0.000000000000000000, 0.000000000000000000 ) ) ;
#162 = CC_DESIGN_PERSON_AND_ORGANIZATION_ASSIGNMENT ( #78, #165, ( #38 ) ) ;
#163 = AXIS2_PLACEMENT_3D ( 'NONE', #16, #176, #134 ) ;
#164 = ORIENTED_EDGE ( 'NONE', *, *, #194, .T. ) ;
#165 = PERSON_AND_ORGANIZATION_ROLE ( 'creator' ) ;
#166 = ADVANCED_FACE ( 'NONE', ( #128 ), #251, .T. ) ;
#167 = CARTESIAN_POINT ( 'NONE',  ( -3.000000000000000444, 0.000000000000000000, 3.000000000000000000 ) ) ;
#168 = AXIS2_PLACEMENT_3D ( 'NONE', #180, #158, #253 ) ;
#169 = ORIENTED_EDGE ( 'NONE', *, *, #21, .F. ) ;
#170 = AXIS2_PLACEMENT_3D ( 'NONE', #197, #172, #149 ) ;
#171 = EDGE_CURVE ( 'NONE', #150, #119, #65, .T. ) ;
#172 = DIRECTION ( 'NONE',  ( 0.000000000000000000, 0.000000000000000000, 1.000000000000000000 ) ) ;
#173 = DIRECTION ( 'NONE',  ( -0.000000000000000000, -0.000000000000000000, -1.000000000000000000 ) ) ;
#174 = CARTESIAN_POINT ( 'NONE',  ( 3.000000000000000444, 3.673940397442060361E-16, 3.000000000000000000 ) ) ;
#175 = FACE_OUTER_BOUND ( 'NONE', #186, .T. ) ;
#176 = DIRECTION ( 'NONE',  ( 1.224646799147353207E-16, 1.000000000000000000, -0.000000000000000000 ) ) ;
#177 = APPLICATION_CONTEXT ( 'configuration controlled 3d designs of mechanical parts and assemblies' ) ;
#178 = VECTOR ( 'NONE', #249, 1000.000000000000000 ) ;
#179 =( GEOMETRIC_REPRESENTATION_CONTEXT ( 3 ) GLOBAL_UNCERTAINTY_ASSIGNED_CONTEXT ( ( #269 ) ) GLOBAL_UNIT_ASSIGNED_CONTEXT ( ( #257, #286, #44 ) ) REPRESENTATION_CONTEXT ( 'NONE', 'WORKASPACE' ) );
#180 = CARTESIAN_POINT ( 'NONE',  ( 0.000000000000000000, 0.000000000000000000, 0.000000000000000000 ) ) ;
#181 = PRODUCT_RELATED_PRODUCT_CATEGORY ( 'detail', '', ( #133 ) ) ;
#182 = LINE ( 'NONE', #111, #217 ) ;
#183 = CALENDAR_DATE ( 2022, 7, 7 ) ;
#184 = EDGE_LOOP ( 'NONE', ( #295, #268, #246, #164 ) ) ;
#185 = APPROVAL_DATE_TIME ( #100, #74 ) ;
#186 = EDGE_LOOP ( 'NONE', ( #236, #293, #36, #28 ) ) ;
#187 = ORIENTED_EDGE ( 'NONE', *, *, #25, .F. ) ;
#188 = PERSON_AND_ORGANIZATION ( #66, #34 ) ;
#189 = ORIENTED_EDGE ( 'NONE', *, *, #154, .T. ) ;
#190 = ADVANCED_FACE ( 'NONE', ( #63 ), #112, .T. ) ;
#191 = CARTESIAN_POINT ( 'NONE',  ( 0.000000000000000000, 0.000000000000000000, 3.000000000000000000 ) ) ;
#192 = VECTOR ( 'NONE', #18, 1000.000000000000000 ) ;
#193 = VERTEX_POINT ( 'NONE', #114 ) ;
#194 = EDGE_CURVE ( 'NONE', #150, #59, #146, .T. ) ;
#195 = AXIS2_PLACEMENT_3D ( 'NONE', #15, #43, #135 ) ;
#196 = APPLICATION_CONTEXT ( 'configuration controlled 3d designs of mechanical parts and assemblies' ) ;
#197 = CARTESIAN_POINT ( 'NONE',  ( 0.000000000000000000, 0.000000000000000000, 3.200000000000008171 ) ) ;
#198 = CARTESIAN_POINT ( 'NONE',  ( 1.500000000000000222, 1.836970198721030181E-16, 3.200000000000008171 ) ) ;
#199 = DESIGN_CONTEXT ( 'detailed design', #196, 'design' ) ;
#200 = DIRECTION ( 'NONE',  ( -0.000000000000000000, -0.000000000000000000, -1.000000000000000000 ) ) ;
#201 = FACE_OUTER_BOUND ( 'NONE', #3, .T. ) ;
#202 = DIRECTION ( 'NONE',  ( -1.000000000000000000, 0.000000000000000000, 0.000000000000000000 ) ) ;
#203 = PLANE ( 'NONE',  #205 ) ;
#204 = CC_DESIGN_PERSON_AND_ORGANIZATION_ASSIGNMENT ( #140, #27, ( #92 ) ) ;
#205 = AXIS2_PLACEMENT_3D ( 'NONE', #19, #157, #113 ) ;
#206 = DIRECTION ( 'NONE',  ( 0.000000000000000000, 0.000000000000000000, 1.000000000000000000 ) ) ;
#207 = PRODUCT_DEFINITION_SHAPE ( 'NONE', 'NONE',  #38 ) ;
#208 = CIRCLE ( 'NONE', #84, 3.000000000000000444 ) ;
#209 = PERSON_AND_ORGANIZATION_ROLE ( 'design_owner' ) ;
#210 = APPROVAL_ROLE ( '' ) ;
#211 = EDGE_LOOP ( 'NONE', ( #255, #287, #221, #103 ) ) ;
#212 = VERTEX_POINT ( 'NONE', #131 ) ;
#213 = COORDINATED_UNIVERSAL_TIME_OFFSET ( 1, 0, .AHEAD. ) ;
#214 = VECTOR ( 'NONE', #12, 1000.000000000000000 ) ;
#215 = DIRECTION ( 'NONE',  ( 1.000000000000000000, 0.000000000000000000, 0.000000000000000000 ) ) ;
#216 = ADVANCED_FACE ( 'NONE', ( #201 ), #155, .T. ) ;
#217 = VECTOR ( 'NONE', #70, 1000.000000000000000 ) ;
#218 = APPROVAL_PERSON_ORGANIZATION ( #188, #234, #120 ) ;
#219 = CARTESIAN_POINT ( 'NONE',  ( 1.500000000000000222, 1.836970198721030181E-16, 163.0000000000000000 ) ) ;
#220 = LOCAL_TIME ( 12, 31, 47.00000000000000000, #213 ) ;
#221 = ORIENTED_EDGE ( 'NONE', *, *, #21, .T. ) ;
#222 = CARTESIAN_POINT ( 'NONE',  ( -1.500000000000000222, 0.000000000000000000, 163.0000000000000000 ) ) ;
#223 = ADVANCED_FACE ( 'NONE', ( #298, #231 ), #203, .T. ) ;
#224 = ORIENTED_EDGE ( 'NONE', *, *, #83, .F. ) ;
#225 = FACE_OUTER_BOUND ( 'NONE', #184, .T. ) ;
#226 = DIRECTION ( 'NONE',  ( -0.000000000000000000, -0.000000000000000000, -1.000000000000000000 ) ) ;
#227 = DIRECTION ( 'NONE',  ( -0.000000000000000000, -0.000000000000000000, -1.000000000000000000 ) ) ;
#228 = CIRCLE ( 'NONE', #24, 3.000000000000000444 ) ;
#229 = CARTESIAN_POINT ( 'NONE',  ( 0.000000000000000000, 0.000000000000000000, 3.000000000000000000 ) ) ;
#230 = AXIS2_PLACEMENT_3D ( 'NONE', #123, #9, #35 ) ;
#231 = FACE_OUTER_BOUND ( 'NONE', #138, .T. ) ;
#232 = DIRECTION ( 'NONE',  ( 0.000000000000000000, 0.000000000000000000, 1.000000000000000000 ) ) ;
#233 = ORIENTED_EDGE ( 'NONE', *, *, #241, .F. ) ;
#234 = APPROVAL ( #284, 'NEURÈENÝ' ) ;
#235 = DATE_AND_TIME ( #183, #46 ) ;
#236 = ORIENTED_EDGE ( 'NONE', *, *, #104, .F. ) ;
#237 = MANIFOLD_SOLID_BREP ( 'Zaoblit1', #288 ) ;
#238 = COORDINATED_UNIVERSAL_TIME_OFFSET ( 1, 0, .AHEAD. ) ;
#239 = APPROVAL_PERSON_ORGANIZATION ( #51, #74, #280 ) ;
#240 = PERSON_AND_ORGANIZATION_ROLE ( 'creator' ) ;
#241 = EDGE_CURVE ( 'NONE', #107, #80, #228, .T. ) ;
#242 = ORIENTED_EDGE ( 'NONE', *, *, #25, .T. ) ;
#243 = DIRECTION ( 'NONE',  ( 0.000000000000000000, 0.000000000000000000, -1.000000000000000000 ) ) ;
#244 = EDGE_LOOP ( 'NONE', ( #82, #307 ) ) ;
#245 = CARTESIAN_POINT ( 'NONE',  ( 0.000000000000000000, 0.000000000000000000, 3.000000000000000000 ) ) ;
#246 = ORIENTED_EDGE ( 'NONE', *, *, #127, .T. ) ;
#247 = EDGE_CURVE ( 'NONE', #148, #281, #266, .T. ) ;
#248 = CARTESIAN_POINT ( 'NONE',  ( 0.000000000000000000, 0.000000000000000000, 3.000000000000000000 ) ) ;
#249 = DIRECTION ( 'NONE',  ( -0.000000000000000000, -0.000000000000000000, -1.000000000000000000 ) ) ;
#250 = CC_DESIGN_DATE_AND_TIME_ASSIGNMENT ( #75, #94, ( #38 ) ) ;
#251 = CYLINDRICAL_SURFACE ( 'NONE', #282, 3.000000000000000444 ) ;
#252 = CARTESIAN_POINT ( 'NONE',  ( 0.000000000000000000, 0.000000000000000000, 0.000000000000000000 ) ) ;
#253 = DIRECTION ( 'NONE',  ( 1.000000000000000000, 0.000000000000000000, -0.000000000000000000 ) ) ;
#254 = DIRECTION ( 'NONE',  ( 0.000000000000000000, 0.000000000000000000, 1.000000000000000000 ) ) ;
#255 = ORIENTED_EDGE ( 'NONE', *, *, #171, .F. ) ;
#256 = EDGE_CURVE ( 'NONE', #281, #148, #259, .T. ) ;
#257 =( LENGTH_UNIT ( ) NAMED_UNIT ( * ) SI_UNIT ( .MILLI., .METRE. ) );
#258 = ADVANCED_BREP_SHAPE_REPRESENTATION ( '8560', ( #237, #52 ), #179 ) ;
#259 = CIRCLE ( 'NONE', #130, 1.500000000000000222 ) ;
#260 = DATE_AND_TIME ( #2, #220 ) ;
#261 = APPROVAL_PERSON_ORGANIZATION ( #122, #299, #210 ) ;
#262 = EDGE_LOOP ( 'NONE', ( #224, #233 ) ) ;
#263 = APPROVAL_DATE_TIME ( #55, #299 ) ;
#264 = AXIS2_PLACEMENT_3D ( 'NONE', #191, #81, #289 ) ;
#265 = CYLINDRICAL_SURFACE ( 'NONE', #121, 1.500000000000000222 ) ;
#266 = CIRCLE ( 'NONE', #195, 1.500000000000000222 ) ;
#267 = CARTESIAN_POINT ( 'NONE',  ( -3.000000000000000444, 0.000000000000000000, 0.000000000000000000 ) ) ;
#268 = ORIENTED_EDGE ( 'NONE', *, *, #247, .F. ) ;
#269 = UNCERTAINTY_MEASURE_WITH_UNIT (LENGTH_MEASURE( 1.000000000000000082E-05 ), #257, 'distance_accuracy_value', 'NONE');
#270 = CIRCLE ( 'NONE', #1, 1.700000000000000400 ) ;
#271 = EDGE_LOOP ( 'NONE', ( #124, #283 ) ) ;
#272 = ORIENTED_EDGE ( 'NONE', *, *, #194, .F. ) ;
#273 = PLANE ( 'NONE',  #168 ) ;
#274 = CIRCLE ( 'NONE', #156, 0.2000000000000000944 ) ;
#275 = DIRECTION ( 'NONE',  ( 1.000000000000000000, 0.000000000000000000, 0.000000000000000000 ) ) ;
#276 = EDGE_CURVE ( 'NONE', #119, #193, #141, .T. ) ;
#277 = CC_DESIGN_APPROVAL ( #299, ( #292 ) ) ;
#278 = DIRECTION ( 'NONE',  ( 0.000000000000000000, 0.000000000000000000, 1.000000000000000000 ) ) ;
#279 = CARTESIAN_POINT ( 'NONE',  ( -1.500000000000000222, 0.000000000000000000, 3.200000000000008171 ) ) ;
#280 = APPROVAL_ROLE ( '' ) ;
#281 = VERTEX_POINT ( 'NONE', #296 ) ;
#282 = AXIS2_PLACEMENT_3D ( 'NONE', #229, #41, #37 ) ;
#283 = ORIENTED_EDGE ( 'NONE', *, *, #256, .T. ) ;
#284 = APPROVAL_STATUS ( 'not_yet_approved' ) ;
#285 = APPROVAL_DATE_TIME ( #235, #234 ) ;
#286 =( NAMED_UNIT ( * ) PLANE_ANGLE_UNIT ( ) SI_UNIT ( $, .RADIAN. ) );
#287 = ORIENTED_EDGE ( 'NONE', *, *, #154, .F. ) ;
#288 = CLOSED_SHELL ( 'NONE', ( #29, #216, #302, #166, #223, #136, #95, #190, #13 ) ) ;
#289 = DIRECTION ( 'NONE',  ( 1.000000000000000000, 0.000000000000000000, 0.000000000000000000 ) ) ;
#290 = EDGE_CURVE ( 'NONE', #212, #107, #297, .T. ) ;
#291 = DIRECTION ( 'NONE',  ( -0.000000000000000000, -0.000000000000000000, -1.000000000000000000 ) ) ;
#292 = SECURITY_CLASSIFICATION ( '', '', #98 ) ;
#293 = ORIENTED_EDGE ( 'NONE', *, *, #290, .T. ) ;
#294 = CARTESIAN_POINT ( 'NONE',  ( 0.000000000000000000, 0.000000000000000000, 3.000000000000000000 ) ) ;
#295 = ORIENTED_EDGE ( 'NONE', *, *, #77, .F. ) ;
#296 = CARTESIAN_POINT ( 'NONE',  ( 1.500000000000000222, 1.836970198721030181E-16, 163.0000000000000000 ) ) ;
#297 = LINE ( 'NONE', #174, #178 ) ;
#298 = FACE_BOUND ( 'NONE', #244, .T. ) ;
#299 = APPROVAL ( #137, 'NEURÈENÝ' ) ;
#300 = DIRECTION ( 'NONE',  ( 1.000000000000000000, 0.000000000000000000, 0.000000000000000000 ) ) ;
#301 = CARTESIAN_POINT ( 'NONE',  ( -1.500000000000000222, 0.000000000000000000, 163.0000000000000000 ) ) ;
#302 = ADVANCED_FACE ( 'NONE', ( #175 ), #152, .T. ) ;
#303 = COORDINATED_UNIVERSAL_TIME_OFFSET ( 1, 0, .AHEAD. ) ;
#304 = COORDINATED_UNIVERSAL_TIME_OFFSET ( 1, 0, .AHEAD. ) ;
#305 = ORIENTED_EDGE ( 'NONE', *, *, #171, .T. ) ;
#306 = CALENDAR_DATE ( 2022, 7, 7 ) ;
#307 = ORIENTED_EDGE ( 'NONE', *, *, #276, .T. ) ;
ENDSEC;
END-ISO-10303-21;
