ISO-10303-21;
HEADER;
FILE_DESCRIPTION (( 'STEP AP203' ),
    '1' );
FILE_NAME ('6112.STEP',
    '2023-02-12T11:56:34',
    ( '' ),
    ( '' ),
    'SwSTEP 2.0',
    'SolidWorks 2019',
    '' );
FILE_SCHEMA (( 'CONFIG_CONTROL_DESIGN' ));
ENDSEC;

DATA;
#1 = DIRECTION ( 'NONE',  ( 0.000000000000000000, 0.000000000000000000, 1.000000000000000000 ) ) ;
#2 = PERSON_AND_ORGANIZATION_ROLE ( 'creator' ) ;
#3 = SHAPE_DEFINITION_REPRESENTATION ( #165, #243 ) ;
#4 = SECURITY_CLASSIFICATION ( '', '', #61 ) ;
#5 = CARTESIAN_POINT ( 'NONE',  ( 0.000000000000000000, 0.000000000000000000, 0.000000000000000000 ) ) ;
#6 = ORIENTED_EDGE ( 'NONE', *, *, #129, .T. ) ;
#7 = LINE ( 'NONE', #156, #86 ) ;
#8 = EDGE_CURVE ( 'NONE', #24, #203, #52, .T. ) ;
#9 = CARTESIAN_POINT ( 'NONE',  ( 6.000000000000000888, 7.347880794884120722E-16, 0.000000000000000000 ) ) ;
#10 = EDGE_LOOP ( 'NONE', ( #17, #206, #231, #92 ) ) ;
#11 = COORDINATED_UNIVERSAL_TIME_OFFSET ( 1, 0, .AHEAD. ) ;
#12 = ORIENTED_EDGE ( 'NONE', *, *, #78, .F. ) ;
#13 = AXIS2_PLACEMENT_3D ( 'NONE', #217, #45, #194 ) ;
#14 = EDGE_CURVE ( 'NONE', #146, #29, #250, .T. ) ;
#15 =( NAMED_UNIT ( * ) SI_UNIT ( $, .STERADIAN. ) SOLID_ANGLE_UNIT ( ) );
#16 = CARTESIAN_POINT ( 'NONE',  ( 6.000000000000000888, 7.347880794884120722E-16, 5.000000000000000000 ) ) ;
#17 = ORIENTED_EDGE ( 'NONE', *, *, #129, .F. ) ;
#18 = EDGE_CURVE ( 'NONE', #49, #216, #137, .T. ) ;
#19 = DATE_TIME_ROLE ( 'creation_date' ) ;
#20 = DATE_AND_TIME ( #234, #55 ) ;
#21 = APPROVAL ( #140, 'NEURÈENÝ' ) ;
#22 = AXIS2_PLACEMENT_3D ( 'NONE', #245, #145, #202 ) ;
#23 = DIRECTION ( 'NONE',  ( -0.000000000000000000, -0.000000000000000000, -1.000000000000000000 ) ) ;
#24 = VERTEX_POINT ( 'NONE', #16 ) ;
#25 = CIRCLE ( 'NONE', #63, 6.000000000000000888 ) ;
#26 = CALENDAR_DATE ( 2023, 12, 2 ) ;
#27 = DESIGN_CONTEXT ( 'detailed design', #238, 'design' ) ;
#28 = FACE_OUTER_BOUND ( 'NONE', #103, .T. ) ;
#29 = VERTEX_POINT ( 'NONE', #105 ) ;
#30 = DIRECTION ( 'NONE',  ( -0.000000000000000000, -0.000000000000000000, -1.000000000000000000 ) ) ;
#31 = ORIENTED_EDGE ( 'NONE', *, *, #181, .F. ) ;
#32 = AXIS2_PLACEMENT_3D ( 'NONE', #130, #64, #99 ) ;
#33 = CC_DESIGN_SECURITY_CLASSIFICATION ( #4, ( #190 ) ) ;
#34 = MANIFOLD_SOLID_BREP ( 'Pøidat vysunutím3', #72 ) ;
#35 = CC_DESIGN_PERSON_AND_ORGANIZATION_ASSIGNMENT ( #189, #2, ( #190 ) ) ;
#36 = DIRECTION ( 'NONE',  ( 0.000000000000000000, 0.000000000000000000, 1.000000000000000000 ) ) ;
#37 = ORIENTED_EDGE ( 'NONE', *, *, #191, .F. ) ;
#38 = DATE_AND_TIME ( #208, #151 ) ;
#39 = DIRECTION ( 'NONE',  ( 0.000000000000000000, 0.000000000000000000, 1.000000000000000000 ) ) ;
#40 = APPROVAL_STATUS ( 'not_yet_approved' ) ;
#41 = DATE_AND_TIME ( #91, #127 ) ;
#42 = LOCAL_TIME ( 12, 56, 34.00000000000000000, #126 ) ;
#43 = DIRECTION ( 'NONE',  ( 1.000000000000000000, 0.000000000000000000, 0.000000000000000000 ) ) ;
#44 = EDGE_LOOP ( 'NONE', ( #106, #218 ) ) ;
#45 = DIRECTION ( 'NONE',  ( 0.000000000000000000, 0.000000000000000000, 1.000000000000000000 ) ) ;
#46 = AXIS2_PLACEMENT_3D ( 'NONE', #162, #241, #176 ) ;
#47 = DIRECTION ( 'NONE',  ( -1.000000000000000000, 0.000000000000000000, 0.000000000000000000 ) ) ;
#48 = DIRECTION ( 'NONE',  ( 0.000000000000000000, 0.000000000000000000, 1.000000000000000000 ) ) ;
#49 = VERTEX_POINT ( 'NONE', #89 ) ;
#50 = APPROVAL_PERSON_ORGANIZATION ( #150, #255, #213 ) ;
#51 = EDGE_LOOP ( 'NONE', ( #37, #201 ) ) ;
#52 = CIRCLE ( 'NONE', #153, 6.000000000000000888 ) ;
#53 = ORIENTED_EDGE ( 'NONE', *, *, #76, .F. ) ;
#54 = EDGE_CURVE ( 'NONE', #203, #24, #149, .T. ) ;
#55 = LOCAL_TIME ( 12, 56, 34.00000000000000000, #187 ) ;
#56 = CARTESIAN_POINT ( 'NONE',  ( 0.000000000000000000, 0.000000000000000000, 0.000000000000000000 ) ) ;
#57 = APPROVAL_ROLE ( '' ) ;
#58 = COORDINATED_UNIVERSAL_TIME_OFFSET ( 1, 0, .AHEAD. ) ;
#59 = CIRCLE ( 'NONE', #233, 3.750000000000000000 ) ;
#60 = CARTESIAN_POINT ( 'NONE',  ( -3.750000000000000000, 0.000000000000000000, 400.0000000000000000 ) ) ;
#61 = SECURITY_CLASSIFICATION_LEVEL ( 'unclassified' ) ;
#62 = PERSON_AND_ORGANIZATION ( #167, #163 ) ;
#63 = AXIS2_PLACEMENT_3D ( 'NONE', #5, #97, #43 ) ;
#64 = DIRECTION ( 'NONE',  ( -0.000000000000000000, -0.000000000000000000, -1.000000000000000000 ) ) ;
#65 = PLANE ( 'NONE',  #46 ) ;
#66 = VECTOR ( 'NONE', #75, 1000.000000000000000 ) ;
#67 = CYLINDRICAL_SURFACE ( 'NONE', #223, 6.000000000000000888 ) ;
#68 = DATE_TIME_ROLE ( 'classification_date' ) ;
#69 = FACE_OUTER_BOUND ( 'NONE', #124, .T. ) ;
#70 = ORIENTED_EDGE ( 'NONE', *, *, #214, .T. ) ;
#71 = EDGE_CURVE ( 'NONE', #29, #146, #131, .T. ) ;
#72 = CLOSED_SHELL ( 'NONE', ( #168, #252, #227, #84, #204, #111, #107 ) ) ;
#73 = CARTESIAN_POINT ( 'NONE',  ( 0.000000000000000000, 0.000000000000000000, 5.000000000000000000 ) ) ;
#74 = DIRECTION ( 'NONE',  ( 1.000000000000000000, 0.000000000000000000, 0.000000000000000000 ) ) ;
#75 = DIRECTION ( 'NONE',  ( -0.000000000000000000, -0.000000000000000000, -1.000000000000000000 ) ) ;
#76 = EDGE_CURVE ( 'NONE', #146, #216, #152, .T. ) ;
#77 = PERSON_AND_ORGANIZATION ( #167, #163 ) ;
#78 = EDGE_CURVE ( 'NONE', #203, #179, #173, .T. ) ;
#79 = AXIS2_PLACEMENT_3D ( 'NONE', #136, #186, #134 ) ;
#80 = CARTESIAN_POINT ( 'NONE',  ( 0.000000000000000000, 0.000000000000000000, 5.000000000000000000 ) ) ;
#81 = ORIENTED_EDGE ( 'NONE', *, *, #76, .T. ) ;
#82 = CARTESIAN_POINT ( 'NONE',  ( 3.750000000000000000, 4.592425496802572986E-16, 400.0000000000000000 ) ) ;
#83 = FACE_OUTER_BOUND ( 'NONE', #10, .T. ) ;
#84 = ADVANCED_FACE ( 'NONE', ( #93, #254 ), #138, .T. ) ;
#85 = DIRECTION ( 'NONE',  ( 0.000000000000000000, 0.000000000000000000, 1.000000000000000000 ) ) ;
#86 = VECTOR ( 'NONE', #100, 1000.000000000000000 ) ;
#87 = CARTESIAN_POINT ( 'NONE',  ( 0.000000000000000000, 0.000000000000000000, 5.000000000000000000 ) ) ;
#88 = AXIS2_PLACEMENT_3D ( 'NONE', #198, #30, #104 ) ;
#89 = CARTESIAN_POINT ( 'NONE',  ( 3.750000000000000000, 4.592425496802572986E-16, 5.000000000000000000 ) ) ;
#90 = ORIENTED_EDGE ( 'NONE', *, *, #155, .F. ) ;
#91 = CALENDAR_DATE ( 2023, 12, 2 ) ;
#92 = ORIENTED_EDGE ( 'NONE', *, *, #181, .T. ) ;
#93 = FACE_BOUND ( 'NONE', #51, .T. ) ;
#94 = CC_DESIGN_DATE_AND_TIME_ASSIGNMENT ( #96, #68, ( #4 ) ) ;
#95 = APPLICATION_CONTEXT ( 'configuration controlled 3d designs of mechanical parts and assemblies' ) ;
#96 = DATE_AND_TIME ( #219, #42 ) ;
#97 = DIRECTION ( 'NONE',  ( 0.000000000000000000, 0.000000000000000000, 1.000000000000000000 ) ) ;
#98 = ORIENTED_EDGE ( 'NONE', *, *, #191, .T. ) ;
#99 = DIRECTION ( 'NONE',  ( -1.000000000000000000, 0.000000000000000000, 0.000000000000000000 ) ) ;
#100 = DIRECTION ( 'NONE',  ( -0.000000000000000000, -0.000000000000000000, -1.000000000000000000 ) ) ;
#101 = PERSON_AND_ORGANIZATION_ROLE ( 'classification_officer' ) ;
#102 = DIRECTION ( 'NONE',  ( 1.000000000000000000, 0.000000000000000000, 0.000000000000000000 ) ) ;
#103 = EDGE_LOOP ( 'NONE', ( #232, #70, #244, #53 ) ) ;
#104 = DIRECTION ( 'NONE',  ( -1.000000000000000000, 0.000000000000000000, 0.000000000000000000 ) ) ;
#105 = CARTESIAN_POINT ( 'NONE',  ( 3.750000000000000000, 4.592425496802572986E-16, 400.0000000000000000 ) ) ;
#106 = ORIENTED_EDGE ( 'NONE', *, *, #14, .T. ) ;
#107 = ADVANCED_FACE ( 'NONE', ( #253 ), #192, .T. ) ;
#108 =( GEOMETRIC_REPRESENTATION_CONTEXT ( 3 ) GLOBAL_UNCERTAINTY_ASSIGNED_CONTEXT ( ( #110 ) ) GLOBAL_UNIT_ASSIGNED_CONTEXT ( ( #169, #246, #15 ) ) REPRESENTATION_CONTEXT ( 'NONE', 'WORKASPACE' ) );
#109 = PERSON_AND_ORGANIZATION ( #167, #163 ) ;
#110 = UNCERTAINTY_MEASURE_WITH_UNIT (LENGTH_MEASURE( 1.000000000000000082E-05 ), #169, 'distance_accuracy_value', 'NONE');
#111 = ADVANCED_FACE ( 'NONE', ( #69 ), #197, .T. ) ;
#112 = AXIS2_PLACEMENT_3D ( 'NONE', #209, #39, #115 ) ;
#113 = APPROVAL_DATE_TIME ( #38, #143 ) ;
#114 = MECHANICAL_CONTEXT ( 'NONE', #95, 'mechanical' ) ;
#115 = DIRECTION ( 'NONE',  ( 1.000000000000000000, 0.000000000000000000, -0.000000000000000000 ) ) ;
#116 = CARTESIAN_POINT ( 'NONE',  ( 0.000000000000000000, 0.000000000000000000, 400.0000000000000000 ) ) ;
#117 = CC_DESIGN_DATE_AND_TIME_ASSIGNMENT ( #20, #19, ( #200 ) ) ;
#118 = PERSON_AND_ORGANIZATION_ROLE ( 'creator' ) ;
#119 = PERSON_AND_ORGANIZATION ( #167, #163 ) ;
#120 = CC_DESIGN_APPROVAL ( #143, ( #190 ) ) ;
#121 = PERSON_AND_ORGANIZATION ( #167, #163 ) ;
#122 = ORIENTED_EDGE ( 'NONE', *, *, #54, .T. ) ;
#123 = CC_DESIGN_PERSON_AND_ORGANIZATION_ASSIGNMENT ( #77, #239, ( #190 ) ) ;
#124 = EDGE_LOOP ( 'NONE', ( #195, #158, #81, #98 ) ) ;
#125 = CIRCLE ( 'NONE', #13, 6.000000000000000888 ) ;
#126 = COORDINATED_UNIVERSAL_TIME_OFFSET ( 1, 0, .AHEAD. ) ;
#127 = LOCAL_TIME ( 12, 56, 34.00000000000000000, #58 ) ;
#128 = DIRECTION ( 'NONE',  ( -1.000000000000000000, 0.000000000000000000, 0.000000000000000000 ) ) ;
#129 = EDGE_CURVE ( 'NONE', #24, #228, #7, .T. ) ;
#130 = CARTESIAN_POINT ( 'NONE',  ( 0.000000000000000000, 0.000000000000000000, 400.0000000000000000 ) ) ;
#131 = CIRCLE ( 'NONE', #183, 3.750000000000000000 ) ;
#132 = CARTESIAN_POINT ( 'NONE',  ( -6.000000000000000888, 0.000000000000000000, 5.000000000000000000 ) ) ;
#133 = COORDINATED_UNIVERSAL_TIME_OFFSET ( 1, 0, .AHEAD. ) ;
#134 = DIRECTION ( 'NONE',  ( 1.000000000000000000, 0.000000000000000000, -0.000000000000000000 ) ) ;
#135 = APPLICATION_PROTOCOL_DEFINITION ( 'international standard', 'config_control_design', 1994, #238 ) ;
#136 = CARTESIAN_POINT ( 'NONE',  ( 0.000000000000000000, 0.000000000000000000, 5.000000000000000000 ) ) ;
#137 = CIRCLE ( 'NONE', #148, 3.750000000000000000 ) ;
#138 = PLANE ( 'NONE',  #79 ) ;
#139 = CARTESIAN_POINT ( 'NONE',  ( -6.000000000000000888, 0.000000000000000000, 0.000000000000000000 ) ) ;
#140 = APPROVAL_STATUS ( 'not_yet_approved' ) ;
#141 = CARTESIAN_POINT ( 'NONE',  ( -3.750000000000000000, 0.000000000000000000, 400.0000000000000000 ) ) ;
#142 = DIRECTION ( 'NONE',  ( -0.000000000000000000, -0.000000000000000000, -1.000000000000000000 ) ) ;
#143 = APPROVAL ( #172, 'NEURÈENÝ' ) ;
#144 = FACE_OUTER_BOUND ( 'NONE', #164, .T. ) ;
#145 = DIRECTION ( 'NONE',  ( 0.000000000000000000, 0.000000000000000000, 1.000000000000000000 ) ) ;
#146 = VERTEX_POINT ( 'NONE', #141 ) ;
#147 = CARTESIAN_POINT ( 'NONE',  ( 0.000000000000000000, 0.000000000000000000, 5.000000000000000000 ) ) ;
#148 = AXIS2_PLACEMENT_3D ( 'NONE', #73, #36, #170 ) ;
#149 = CIRCLE ( 'NONE', #199, 6.000000000000000888 ) ;
#150 = PERSON_AND_ORGANIZATION ( #167, #163 ) ;
#151 = LOCAL_TIME ( 12, 56, 34.00000000000000000, #133 ) ;
#152 = LINE ( 'NONE', #60, #66 ) ;
#153 = AXIS2_PLACEMENT_3D ( 'NONE', #87, #85, #205 ) ;
#154 = LINE ( 'NONE', #82, #236 ) ;
#155 = EDGE_CURVE ( 'NONE', #228, #179, #125, .T. ) ;
#156 = CARTESIAN_POINT ( 'NONE',  ( 6.000000000000000888, 7.347880794884120722E-16, 5.000000000000000000 ) ) ;
#157 = CARTESIAN_POINT ( 'NONE',  ( -6.000000000000000888, 0.000000000000000000, 5.000000000000000000 ) ) ;
#158 = ORIENTED_EDGE ( 'NONE', *, *, #14, .F. ) ;
#159 = DATE_AND_TIME ( #26, #210 ) ;
#160 = CC_DESIGN_PERSON_AND_ORGANIZATION_ASSIGNMENT ( #62, #118, ( #200 ) ) ;
#161 = DIRECTION ( 'NONE',  ( -0.000000000000000000, -0.000000000000000000, -1.000000000000000000 ) ) ;
#162 = CARTESIAN_POINT ( 'NONE',  ( 0.000000000000000000, 0.000000000000000000, 0.000000000000000000 ) ) ;
#163 = ORGANIZATION ( 'NEURÈENÝ', 'NEURÈENÝ', '' ) ;
#164 = EDGE_LOOP ( 'NONE', ( #180, #6, #193, #12 ) ) ;
#165 = PRODUCT_DEFINITION_SHAPE ( 'NONE', 'NONE',  #200 ) ;
#166 = EDGE_LOOP ( 'NONE', ( #122, #182 ) ) ;
#167 = PERSON ( 'NEURÈENÝ', 'NEURÈENÝ', 'NEURÈENÝ', ('NEURÈENÝ'), ('NEURÈENÝ'), ('NEURÈENÝ') ) ;
#168 = ADVANCED_FACE ( 'NONE', ( #28 ), #222, .T. ) ;
#169 =( LENGTH_UNIT ( ) NAMED_UNIT ( * ) SI_UNIT ( .MILLI., .METRE. ) );
#170 = DIRECTION ( 'NONE',  ( 1.000000000000000000, 0.000000000000000000, 0.000000000000000000 ) ) ;
#171 = CC_DESIGN_PERSON_AND_ORGANIZATION_ASSIGNMENT ( #119, #101, ( #4 ) ) ;
#172 = APPROVAL_STATUS ( 'not_yet_approved' ) ;
#173 = LINE ( 'NONE', #132, #221 ) ;
#174 = APPROVAL_ROLE ( '' ) ;
#175 = CARTESIAN_POINT ( 'NONE',  ( 0.000000000000000000, 0.000000000000000000, 400.0000000000000000 ) ) ;
#176 = DIRECTION ( 'NONE',  ( 1.000000000000000000, 0.000000000000000000, -0.000000000000000000 ) ) ;
#177 = PERSON_AND_ORGANIZATION ( #167, #163 ) ;
#178 = PRODUCT_RELATED_PRODUCT_CATEGORY ( 'detail', '', ( #242 ) ) ;
#179 = VERTEX_POINT ( 'NONE', #139 ) ;
#180 = ORIENTED_EDGE ( 'NONE', *, *, #8, .F. ) ;
#181 = EDGE_CURVE ( 'NONE', #179, #228, #25, .T. ) ;
#182 = ORIENTED_EDGE ( 'NONE', *, *, #8, .T. ) ;
#183 = AXIS2_PLACEMENT_3D ( 'NONE', #116, #1, #188 ) ;
#184 = DIRECTION ( 'NONE',  ( -0.000000000000000000, -0.000000000000000000, -1.000000000000000000 ) ) ;
#185 = PERSON_AND_ORGANIZATION_ROLE ( 'design_owner' ) ;
#186 = DIRECTION ( 'NONE',  ( 0.000000000000000000, 0.000000000000000000, 1.000000000000000000 ) ) ;
#187 = COORDINATED_UNIVERSAL_TIME_OFFSET ( 1, 0, .AHEAD. ) ;
#188 = DIRECTION ( 'NONE',  ( 1.000000000000000000, 0.000000000000000000, 0.000000000000000000 ) ) ;
#189 = PERSON_AND_ORGANIZATION ( #167, #163 ) ;
#190 = PRODUCT_DEFINITION_FORMATION_WITH_SPECIFIED_SOURCE ( 'LIBOVOLNÝ', '', #242, .NOT_KNOWN. ) ;
#191 = EDGE_CURVE ( 'NONE', #216, #49, #59, .T. ) ;
#192 = PLANE ( 'NONE',  #112 ) ;
#193 = ORIENTED_EDGE ( 'NONE', *, *, #155, .T. ) ;
#194 = DIRECTION ( 'NONE',  ( 1.000000000000000000, 0.000000000000000000, 0.000000000000000000 ) ) ;
#195 = ORIENTED_EDGE ( 'NONE', *, *, #214, .F. ) ;
#196 = CC_DESIGN_APPROVAL ( #255, ( #200 ) ) ;
#197 = CYLINDRICAL_SURFACE ( 'NONE', #235, 3.750000000000000000 ) ;
#198 = CARTESIAN_POINT ( 'NONE',  ( 0.000000000000000000, 0.000000000000000000, 5.000000000000000000 ) ) ;
#199 = AXIS2_PLACEMENT_3D ( 'NONE', #147, #248, #74 ) ;
#200 = PRODUCT_DEFINITION ( 'NEZNÁMÝ', '', #190, #27 ) ;
#201 = ORIENTED_EDGE ( 'NONE', *, *, #18, .F. ) ;
#202 = DIRECTION ( 'NONE',  ( 1.000000000000000000, 0.000000000000000000, 0.000000000000000000 ) ) ;
#203 = VERTEX_POINT ( 'NONE', #157 ) ;
#204 = ADVANCED_FACE ( 'NONE', ( #240 ), #65, .F. ) ;
#205 = DIRECTION ( 'NONE',  ( 1.000000000000000000, 0.000000000000000000, 0.000000000000000000 ) ) ;
#206 = ORIENTED_EDGE ( 'NONE', *, *, #54, .F. ) ;
#207 = APPLICATION_PROTOCOL_DEFINITION ( 'international standard', 'config_control_design', 1994, #95 ) ;
#208 = CALENDAR_DATE ( 2023, 12, 2 ) ;
#209 = CARTESIAN_POINT ( 'NONE',  ( 0.000000000000000000, 0.000000000000000000, 400.0000000000000000 ) ) ;
#210 = LOCAL_TIME ( 12, 56, 34.00000000000000000, #11 ) ;
#211 = DIRECTION ( 'NONE',  ( 0.000000000000000000, 0.000000000000000000, 1.000000000000000000 ) ) ;
#212 = APPROVAL_DATE_TIME ( #41, #255 ) ;
#213 = APPROVAL_ROLE ( '' ) ;
#214 = EDGE_CURVE ( 'NONE', #29, #49, #154, .T. ) ;
#215 = CARTESIAN_POINT ( 'NONE',  ( -3.750000000000000000, 0.000000000000000000, 5.000000000000000000 ) ) ;
#216 = VERTEX_POINT ( 'NONE', #215 ) ;
#217 = CARTESIAN_POINT ( 'NONE',  ( 0.000000000000000000, 0.000000000000000000, 0.000000000000000000 ) ) ;
#218 = ORIENTED_EDGE ( 'NONE', *, *, #71, .T. ) ;
#219 = CALENDAR_DATE ( 2023, 12, 2 ) ;
#220 = CC_DESIGN_PERSON_AND_ORGANIZATION_ASSIGNMENT ( #109, #185, ( #242 ) ) ;
#221 = VECTOR ( 'NONE', #184, 1000.000000000000000 ) ;
#222 = CYLINDRICAL_SURFACE ( 'NONE', #32, 3.750000000000000000 ) ;
#223 = AXIS2_PLACEMENT_3D ( 'NONE', #224, #142, #47 ) ;
#224 = CARTESIAN_POINT ( 'NONE',  ( 0.000000000000000000, 0.000000000000000000, 5.000000000000000000 ) ) ;
#225 = CYLINDRICAL_SURFACE ( 'NONE', #88, 6.000000000000000888 ) ;
#226 = APPROVAL_DATE_TIME ( #159, #21 ) ;
#227 = ADVANCED_FACE ( 'NONE', ( #83 ), #67, .T. ) ;
#228 = VERTEX_POINT ( 'NONE', #9 ) ;
#229 = APPROVAL_PERSON_ORGANIZATION ( #121, #143, #57 ) ;
#230 = APPROVAL_PERSON_ORGANIZATION ( #177, #21, #174 ) ;
#231 = ORIENTED_EDGE ( 'NONE', *, *, #78, .T. ) ;
#232 = ORIENTED_EDGE ( 'NONE', *, *, #71, .F. ) ;
#233 = AXIS2_PLACEMENT_3D ( 'NONE', #80, #48, #102 ) ;
#234 = CALENDAR_DATE ( 2023, 12, 2 ) ;
#235 = AXIS2_PLACEMENT_3D ( 'NONE', #175, #23, #128 ) ;
#236 = VECTOR ( 'NONE', #161, 1000.000000000000000 ) ;
#237 = DIRECTION ( 'NONE',  ( 1.000000000000000000, 0.000000000000000000, 0.000000000000000000 ) ) ;
#238 = APPLICATION_CONTEXT ( 'configuration controlled 3d designs of mechanical parts and assemblies' ) ;
#239 = PERSON_AND_ORGANIZATION_ROLE ( 'design_supplier' ) ;
#240 = FACE_OUTER_BOUND ( 'NONE', #249, .T. ) ;
#241 = DIRECTION ( 'NONE',  ( 0.000000000000000000, 0.000000000000000000, 1.000000000000000000 ) ) ;
#242 = PRODUCT ( '6112', '6112', '', ( #114 ) ) ;
#243 = ADVANCED_BREP_SHAPE_REPRESENTATION ( '6112', ( #34, #251 ), #108 ) ;
#244 = ORIENTED_EDGE ( 'NONE', *, *, #18, .T. ) ;
#245 = CARTESIAN_POINT ( 'NONE',  ( 0.000000000000000000, 0.000000000000000000, 400.0000000000000000 ) ) ;
#246 =( NAMED_UNIT ( * ) PLANE_ANGLE_UNIT ( ) SI_UNIT ( $, .RADIAN. ) );
#247 = CC_DESIGN_APPROVAL ( #21, ( #4 ) ) ;
#248 = DIRECTION ( 'NONE',  ( 0.000000000000000000, 0.000000000000000000, 1.000000000000000000 ) ) ;
#249 = EDGE_LOOP ( 'NONE', ( #31, #90 ) ) ;
#250 = CIRCLE ( 'NONE', #22, 3.750000000000000000 ) ;
#251 = AXIS2_PLACEMENT_3D ( 'NONE', #56, #211, #237 ) ;
#252 = ADVANCED_FACE ( 'NONE', ( #144 ), #225, .T. ) ;
#253 = FACE_OUTER_BOUND ( 'NONE', #44, .T. ) ;
#254 = FACE_OUTER_BOUND ( 'NONE', #166, .T. ) ;
#255 = APPROVAL ( #40, 'NEURÈENÝ' ) ;
ENDSEC;
END-ISO-10303-21;
