ISO-10303-21;
HEADER;
FILE_DESCRIPTION (( 'STEP AP203' ),
    '1' );
FILE_NAME ('9fed.STEP',
    '2022-07-07T10:11:51',
    ( '' ),
    ( '' ),
    'SwSTEP 2.0',
    'SolidWorks 2019',
    '' );
FILE_SCHEMA (( 'CONFIG_CONTROL_DESIGN' ));
ENDSEC;

DATA;
#1 = PRODUCT ( '9fed', '9fed', '', ( #144 ) ) ;
#2 = LINE ( 'NONE', #100, #117 ) ;
#3 = DIRECTION ( 'NONE',  ( 0.000000000000000000, 0.000000000000000000, 1.000000000000000000 ) ) ;
#4 = ORIENTED_EDGE ( 'NONE', *, *, #233, .F. ) ;
#5 = EDGE_LOOP ( 'NONE', ( #61, #89 ) ) ;
#6 = ORIENTED_EDGE ( 'NONE', *, *, #48, .F. ) ;
#7 = ORIENTED_EDGE ( 'NONE', *, *, #111, .T. ) ;
#8 = DIRECTION ( 'NONE',  ( 0.000000000000000000, 0.000000000000000000, 1.000000000000000000 ) ) ;
#9 = ADVANCED_FACE ( 'NONE', ( #28 ), #131, .T. ) ;
#10 = CARTESIAN_POINT ( 'NONE',  ( 3.299999999999999822, 0.000000000000000000, 5.200000000000009948 ) ) ;
#11 = DATE_TIME_ROLE ( 'classification_date' ) ;
#12 = CARTESIAN_POINT ( 'NONE',  ( 0.000000000000000000, 0.000000000000000000, 5.200000000000009948 ) ) ;
#13 = CLOSED_SHELL ( 'NONE', ( #84, #33, #256, #198, #182, #191, #9, #154, #148 ) ) ;
#14 = DATE_TIME_ROLE ( 'creation_date' ) ;
#15 = PERSON_AND_ORGANIZATION ( #192, #209 ) ;
#16 = CARTESIAN_POINT ( 'NONE',  ( 0.000000000000000000, 0.000000000000000000, 5.000000000000000000 ) ) ;
#17 = CC_DESIGN_APPROVAL ( #304, ( #243 ) ) ;
#18 = AXIS2_PLACEMENT_3D ( 'NONE', #16, #51, #259 ) ;
#19 = PERSON_AND_ORGANIZATION ( #192, #209 ) ;
#20 = CYLINDRICAL_SURFACE ( 'NONE', #80, 6.000000000000000888 ) ;
#21 = CIRCLE ( 'NONE', #87, 3.100000000000000089 ) ;
#22 = EDGE_CURVE ( 'NONE', #242, #113, #226, .T. ) ;
#23 = FACE_OUTER_BOUND ( 'NONE', #197, .T. ) ;
#24 = CARTESIAN_POINT ( 'NONE',  ( 3.100000000000000089, 3.796405077356794918E-16, 165.0000000000000000 ) ) ;
#25 = LOCAL_TIME ( 12, 11, 51.00000000000000000, #41 ) ;
#26 = CARTESIAN_POINT ( 'NONE',  ( 0.000000000000000000, 0.000000000000000000, 5.000000000000000000 ) ) ;
#27 = CARTESIAN_POINT ( 'NONE',  ( 0.000000000000000000, 0.000000000000000000, 5.200000000000009948 ) ) ;
#28 = FACE_OUTER_BOUND ( 'NONE', #291, .T. ) ;
#29 = AXIS2_PLACEMENT_3D ( 'NONE', #10, #129, #153 ) ;
#30 = EDGE_LOOP ( 'NONE', ( #202, #199, #160, #34 ) ) ;
#31 = AXIS2_PLACEMENT_3D ( 'NONE', #299, #250, #298 ) ;
#32 = CIRCLE ( 'NONE', #244, 3.100000000000000089 ) ;
#33 = ADVANCED_FACE ( 'NONE', ( #271 ), #37, .T. ) ;
#34 = ORIENTED_EDGE ( 'NONE', *, *, #22, .F. ) ;
#35 = ORIENTED_EDGE ( 'NONE', *, *, #48, .T. ) ;
#36 = EDGE_CURVE ( 'NONE', #110, #248, #194, .T. ) ;
#37 = CYLINDRICAL_SURFACE ( 'NONE', #212, 3.100000000000000089 ) ;
#38 = APPROVAL_STATUS ( 'not_yet_approved' ) ;
#39 = APPROVAL_PERSON_ORGANIZATION ( #208, #304, #273 ) ;
#40 = DIRECTION ( 'NONE',  ( -0.000000000000000000, -0.000000000000000000, -1.000000000000000000 ) ) ;
#41 = COORDINATED_UNIVERSAL_TIME_OFFSET ( 1, 0, .AHEAD. ) ;
#42 = APPLICATION_PROTOCOL_DEFINITION ( 'international standard', 'config_control_design', 1994, #282 ) ;
#43 = PRODUCT_RELATED_PRODUCT_CATEGORY ( 'detail', '', ( #1 ) ) ;
#44 =( NAMED_UNIT ( * ) SI_UNIT ( $, .STERADIAN. ) SOLID_ANGLE_UNIT ( ) );
#45 = DATE_AND_TIME ( #99, #25 ) ;
#46 =( LENGTH_UNIT ( ) NAMED_UNIT ( * ) SI_UNIT ( .MILLI., .METRE. ) );
#47 = DIRECTION ( 'NONE',  ( 1.000000000000000000, 0.000000000000000000, 0.000000000000000000 ) ) ;
#48 = EDGE_CURVE ( 'NONE', #240, #266, #228, .T. ) ;
#49 = CARTESIAN_POINT ( 'NONE',  ( 0.000000000000000000, 0.000000000000000000, 0.000000000000000000 ) ) ;
#50 = CC_DESIGN_DATE_AND_TIME_ASSIGNMENT ( #45, #14, ( #165 ) ) ;
#51 = DIRECTION ( 'NONE',  ( -0.000000000000000000, -0.000000000000000000, -1.000000000000000000 ) ) ;
#52 = AXIS2_PLACEMENT_3D ( 'NONE', #53, #152, #218 ) ;
#53 = CARTESIAN_POINT ( 'NONE',  ( 0.000000000000000000, 0.000000000000000000, 165.0000000000000000 ) ) ;
#54 = DIRECTION ( 'NONE',  ( 1.000000000000000000, 0.000000000000000000, 0.000000000000000000 ) ) ;
#55 = ORIENTED_EDGE ( 'NONE', *, *, #293, .T. ) ;
#56 = ORIENTED_EDGE ( 'NONE', *, *, #101, .F. ) ;
#57 = EDGE_CURVE ( 'NONE', #224, #242, #285, .T. ) ;
#58 = EDGE_LOOP ( 'NONE', ( #88, #35, #286, #4 ) ) ;
#59 = CIRCLE ( 'NONE', #290, 6.000000000000000888 ) ;
#60 = EDGE_LOOP ( 'NONE', ( #219, #134, #178, #56 ) ) ;
#61 = ORIENTED_EDGE ( 'NONE', *, *, #36, .T. ) ;
#62 = CARTESIAN_POINT ( 'NONE',  ( 0.000000000000000000, 0.000000000000000000, 165.0000000000000000 ) ) ;
#63 = DATE_AND_TIME ( #186, #135 ) ;
#64 = DIRECTION ( 'NONE',  ( 0.000000000000000000, 0.000000000000000000, 1.000000000000000000 ) ) ;
#65 = PERSON_AND_ORGANIZATION ( #192, #209 ) ;
#66 = DESIGN_CONTEXT ( 'detailed design', #246, 'design' ) ;
#67 = CIRCLE ( 'NONE', #205, 6.000000000000000888 ) ;
#68 = PERSON_AND_ORGANIZATION ( #192, #209 ) ;
#69 = DIRECTION ( 'NONE',  ( 0.000000000000000000, 0.000000000000000000, 1.000000000000000000 ) ) ;
#70 = PERSON_AND_ORGANIZATION_ROLE ( 'classification_officer' ) ;
#71 = DIRECTION ( 'NONE',  ( 1.224646799147353207E-16, 1.000000000000000000, -0.000000000000000000 ) ) ;
#72 = DATE_AND_TIME ( #274, #159 ) ;
#73 = VECTOR ( 'NONE', #214, 1000.000000000000000 ) ;
#74 = EDGE_CURVE ( 'NONE', #242, #224, #21, .T. ) ;
#75 = CARTESIAN_POINT ( 'NONE',  ( 6.000000000000000888, 7.347880794884120722E-16, 0.000000000000000000 ) ) ;
#76 = CARTESIAN_POINT ( 'NONE',  ( -3.299999999999999822, 4.041334437186265510E-16, 5.000000000000005329 ) ) ;
#77 = MANIFOLD_SOLID_BREP ( 'Zaoblit1', #13 ) ;
#78 = DIRECTION ( 'NONE',  ( 0.000000000000000000, 0.000000000000000000, 1.000000000000000000 ) ) ;
#79 = APPROVAL_PERSON_ORGANIZATION ( #231, #112, #119 ) ;
#80 = AXIS2_PLACEMENT_3D ( 'NONE', #276, #260, #125 ) ;
#81 = DIRECTION ( 'NONE',  ( 0.000000000000000000, 0.000000000000000000, 1.000000000000000000 ) ) ;
#82 = AXIS2_PLACEMENT_3D ( 'NONE', #184, #272, #295 ) ;
#83 = AXIS2_PLACEMENT_3D ( 'NONE', #109, #176, #164 ) ;
#84 = ADVANCED_FACE ( 'NONE', ( #181 ), #257, .F. ) ;
#85 = ORIENTED_EDGE ( 'NONE', *, *, #293, .F. ) ;
#86 = ORIENTED_EDGE ( 'NONE', *, *, #203, .T. ) ;
#87 = AXIS2_PLACEMENT_3D ( 'NONE', #91, #64, #206 ) ;
#88 = ORIENTED_EDGE ( 'NONE', *, *, #111, .F. ) ;
#89 = ORIENTED_EDGE ( 'NONE', *, *, #108, .T. ) ;
#90 = CIRCLE ( 'NONE', #279, 0.2000000000000000944 ) ;
#91 = CARTESIAN_POINT ( 'NONE',  ( 0.000000000000000000, 0.000000000000000000, 165.0000000000000000 ) ) ;
#92 = DIRECTION ( 'NONE',  ( 1.000000000000000000, 0.000000000000000000, 0.000000000000000000 ) ) ;
#93 = COORDINATED_UNIVERSAL_TIME_OFFSET ( 1, 0, .AHEAD. ) ;
#94 = APPROVAL_DATE_TIME ( #254, #112 ) ;
#95 = LOCAL_TIME ( 12, 11, 51.00000000000000000, #183 ) ;
#96 = AXIS2_PLACEMENT_3D ( 'NONE', #262, #171, #103 ) ;
#97 = PERSON_AND_ORGANIZATION_ROLE ( 'creator' ) ;
#98 = CARTESIAN_POINT ( 'NONE',  ( 0.000000000000000000, 0.000000000000000000, 5.200000000000009948 ) ) ;
#99 = CALENDAR_DATE ( 2022, 7, 7 ) ;
#100 = CARTESIAN_POINT ( 'NONE',  ( 3.100000000000000089, 3.796405077356794918E-16, 165.0000000000000000 ) ) ;
#101 = EDGE_CURVE ( 'NONE', #201, #110, #156, .T. ) ;
#102 =( NAMED_UNIT ( * ) PLANE_ANGLE_UNIT ( ) SI_UNIT ( $, .RADIAN. ) );
#103 = DIRECTION ( 'NONE',  ( 1.000000000000000000, 0.000000000000000000, -0.000000000000000000 ) ) ;
#104 = FACE_OUTER_BOUND ( 'NONE', #288, .T. ) ;
#105 = CC_DESIGN_DATE_AND_TIME_ASSIGNMENT ( #143, #11, ( #223 ) ) ;
#106 = FACE_OUTER_BOUND ( 'NONE', #225, .T. ) ;
#107 = CIRCLE ( 'NONE', #145, 6.000000000000000888 ) ;
#108 = EDGE_CURVE ( 'NONE', #248, #110, #252, .T. ) ;
#109 = CARTESIAN_POINT ( 'NONE',  ( 0.000000000000000000, 0.000000000000000000, 165.0000000000000000 ) ) ;
#110 = VERTEX_POINT ( 'NONE', #236 ) ;
#111 = EDGE_CURVE ( 'NONE', #240, #267, #136, .T. ) ;
#112 = APPROVAL ( #120, 'NEURÈENÝ' ) ;
#113 = VERTEX_POINT ( 'NONE', #217 ) ;
#114 = ORIENTED_EDGE ( 'NONE', *, *, #74, .F. ) ;
#115 = DIRECTION ( 'NONE',  ( -0.000000000000000000, -0.000000000000000000, -1.000000000000000000 ) ) ;
#116 = EDGE_CURVE ( 'NONE', #266, #133, #59, .T. ) ;
#117 = VECTOR ( 'NONE', #213, 1000.000000000000000 ) ;
#118 = DIRECTION ( 'NONE',  ( 0.000000000000000000, 0.000000000000000000, 1.000000000000000000 ) ) ;
#119 = APPROVAL_ROLE ( '' ) ;
#120 = APPROVAL_STATUS ( 'not_yet_approved' ) ;
#121 = PERSON_AND_ORGANIZATION ( #192, #209 ) ;
#122 = DIRECTION ( 'NONE',  ( 1.000000000000000000, 0.000000000000000000, 0.000000000000000000 ) ) ;
#123 = PERSON_AND_ORGANIZATION_ROLE ( 'design_owner' ) ;
#124 = LINE ( 'NONE', #172, #73 ) ;
#125 = DIRECTION ( 'NONE',  ( -1.000000000000000000, 0.000000000000000000, 0.000000000000000000 ) ) ;
#126 = FACE_BOUND ( 'NONE', #5, .T. ) ;
#127 = LOCAL_TIME ( 12, 11, 51.00000000000000000, #93 ) ;
#128 = AXIS2_PLACEMENT_3D ( 'NONE', #264, #150, #54 ) ;
#129 = DIRECTION ( 'NONE',  ( 0.000000000000000000, -1.000000000000000000, 0.000000000000000000 ) ) ;
#130 = CARTESIAN_POINT ( 'NONE',  ( 0.000000000000000000, 0.000000000000000000, 0.000000000000000000 ) ) ;
#131 = CYLINDRICAL_SURFACE ( 'NONE', #83, 3.100000000000000089 ) ;
#132 = AXIS2_PLACEMENT_3D ( 'NONE', #49, #281, #210 ) ;
#133 = VERTEX_POINT ( 'NONE', #175 ) ;
#134 = ORIENTED_EDGE ( 'NONE', *, *, #297, .T. ) ;
#135 = LOCAL_TIME ( 12, 11, 51.00000000000000000, #305 ) ;
#136 = CIRCLE ( 'NONE', #151, 6.000000000000000888 ) ;
#137 = APPROVAL ( #185, 'NEURÈENÝ' ) ;
#138 = ORIENTED_EDGE ( 'NONE', *, *, #101, .T. ) ;
#139 = ORIENTED_EDGE ( 'NONE', *, *, #163, .F. ) ;
#140 = SECURITY_CLASSIFICATION_LEVEL ( 'unclassified' ) ;
#141 = DIRECTION ( 'NONE',  ( -1.000000000000000000, 0.000000000000000000, 0.000000000000000000 ) ) ;
#142 = CALENDAR_DATE ( 2022, 7, 7 ) ;
#143 = DATE_AND_TIME ( #167, #95 ) ;
#144 = MECHANICAL_CONTEXT ( 'NONE', #282, 'mechanical' ) ;
#145 = AXIS2_PLACEMENT_3D ( 'NONE', #173, #69, #169 ) ;
#146 = CC_DESIGN_PERSON_AND_ORGANIZATION_ASSIGNMENT ( #15, #275, ( #243 ) ) ;
#147 = VECTOR ( 'NONE', #115, 1000.000000000000000 ) ;
#148 = ADVANCED_FACE ( 'NONE', ( #104 ), #220, .F. ) ;
#149 = CARTESIAN_POINT ( 'NONE',  ( -6.000000000000000888, 0.000000000000000000, 5.000000000000000000 ) ) ;
#150 = DIRECTION ( 'NONE',  ( -0.000000000000000000, -0.000000000000000000, -1.000000000000000000 ) ) ;
#151 = AXIS2_PLACEMENT_3D ( 'NONE', #26, #81, #238 ) ;
#152 = DIRECTION ( 'NONE',  ( 0.000000000000000000, 0.000000000000000000, 1.000000000000000000 ) ) ;
#153 = DIRECTION ( 'NONE',  ( 0.000000000000000000, 0.000000000000000000, -1.000000000000000000 ) ) ;
#154 = ADVANCED_FACE ( 'NONE', ( #106 ), #195, .T. ) ;
#155 = ORIENTED_EDGE ( 'NONE', *, *, #22, .T. ) ;
#156 = CIRCLE ( 'NONE', #29, 0.1999999999999996503 ) ;
#157 = EDGE_LOOP ( 'NONE', ( #6, #180, #221, #55 ) ) ;
#158 = ORIENTED_EDGE ( 'NONE', *, *, #74, .T. ) ;
#159 = LOCAL_TIME ( 12, 11, 51.00000000000000000, #229 ) ;
#160 = ORIENTED_EDGE ( 'NONE', *, *, #163, .T. ) ;
#161 = AXIS2_PLACEMENT_3D ( 'NONE', #162, #118, #296 ) ;
#162 = CARTESIAN_POINT ( 'NONE',  ( 0.000000000000000000, 0.000000000000000000, 165.0000000000000000 ) ) ;
#163 = EDGE_CURVE ( 'NONE', #201, #113, #32, .T. ) ;
#164 = DIRECTION ( 'NONE',  ( -1.000000000000000000, 0.000000000000000000, 0.000000000000000000 ) ) ;
#165 = PRODUCT_DEFINITION ( 'NEZNÁMÝ', '', #243, #66 ) ;
#166 = CC_DESIGN_APPROVAL ( #112, ( #165 ) ) ;
#167 = CALENDAR_DATE ( 2022, 7, 7 ) ;
#168 = PERSON_AND_ORGANIZATION_ROLE ( 'design_supplier' ) ;
#169 = DIRECTION ( 'NONE',  ( 1.000000000000000000, 0.000000000000000000, 0.000000000000000000 ) ) ;
#170 = APPROVAL_DATE_TIME ( #72, #304 ) ;
#171 = DIRECTION ( 'NONE',  ( 0.000000000000000000, 0.000000000000000000, 1.000000000000000000 ) ) ;
#172 = CARTESIAN_POINT ( 'NONE',  ( -6.000000000000000888, 0.000000000000000000, 5.000000000000000000 ) ) ;
#173 = CARTESIAN_POINT ( 'NONE',  ( 0.000000000000000000, 0.000000000000000000, 0.000000000000000000 ) ) ;
#174 = DIRECTION ( 'NONE',  ( 0.000000000000000000, 0.000000000000000000, 1.000000000000000000 ) ) ;
#175 = CARTESIAN_POINT ( 'NONE',  ( -6.000000000000000888, 0.000000000000000000, 0.000000000000000000 ) ) ;
#176 = DIRECTION ( 'NONE',  ( -0.000000000000000000, -0.000000000000000000, -1.000000000000000000 ) ) ;
#177 = ORIENTED_EDGE ( 'NONE', *, *, #57, .T. ) ;
#178 = ORIENTED_EDGE ( 'NONE', *, *, #36, .F. ) ;
#179 = ORIENTED_EDGE ( 'NONE', *, *, #287, .F. ) ;
#180 = ORIENTED_EDGE ( 'NONE', *, *, #203, .F. ) ;
#181 = FACE_OUTER_BOUND ( 'NONE', #60, .T. ) ;
#182 = ADVANCED_FACE ( 'NONE', ( #126, #23 ), #230, .T. ) ;
#183 = COORDINATED_UNIVERSAL_TIME_OFFSET ( 1, 0, .AHEAD. ) ;
#184 = CARTESIAN_POINT ( 'NONE',  ( 0.000000000000000000, 0.000000000000000000, 5.000000000000000000 ) ) ;
#185 = APPROVAL_STATUS ( 'not_yet_approved' ) ;
#186 = CALENDAR_DATE ( 2022, 7, 7 ) ;
#187 = CARTESIAN_POINT ( 'NONE',  ( -3.100000000000000089, 0.000000000000000000, 165.0000000000000000 ) ) ;
#188 = APPROVAL_DATE_TIME ( #63, #137 ) ;
#189 = CARTESIAN_POINT ( 'NONE',  ( -3.299999999999999822, 4.041334437186265510E-16, 5.200000000000009948 ) ) ;
#190 = CARTESIAN_POINT ( 'NONE',  ( 3.100000000000000089, 3.796405077356794918E-16, 5.200000000000009948 ) ) ;
#191 = ADVANCED_FACE ( 'NONE', ( #193 ), #234, .F. ) ;
#192 = PERSON ( 'NEURÈENÝ', 'NEURÈENÝ', 'NEURÈENÝ', ('NEURÈENÝ'), ('NEURÈENÝ'), ('NEURÈENÝ') ) ;
#193 = FACE_OUTER_BOUND ( 'NONE', #270, .T. ) ;
#194 = CIRCLE ( 'NONE', #82, 3.299999999999999822 ) ;
#195 = PLANE ( 'NONE',  #52 ) ;
#196 = DIRECTION ( 'NONE',  ( 1.000000000000000000, 0.000000000000000000, 0.000000000000000000 ) ) ;
#197 = EDGE_LOOP ( 'NONE', ( #86, #7 ) ) ;
#198 = ADVANCED_FACE ( 'NONE', ( #306 ), #235, .T. ) ;
#199 = ORIENTED_EDGE ( 'NONE', *, *, #287, .T. ) ;
#200 = APPROVAL_PERSON_ORGANIZATION ( #302, #137, #211 ) ;
#201 = VERTEX_POINT ( 'NONE', #190 ) ;
#202 = ORIENTED_EDGE ( 'NONE', *, *, #57, .F. ) ;
#203 = EDGE_CURVE ( 'NONE', #267, #240, #67, .T. ) ;
#204 = DIRECTION ( 'NONE',  ( -0.000000000000000000, -0.000000000000000000, -1.000000000000000000 ) ) ;
#205 = AXIS2_PLACEMENT_3D ( 'NONE', #232, #307, #122 ) ;
#206 = DIRECTION ( 'NONE',  ( 1.000000000000000000, 0.000000000000000000, 0.000000000000000000 ) ) ;
#207 = CC_DESIGN_PERSON_AND_ORGANIZATION_ASSIGNMENT ( #19, #70, ( #223 ) ) ;
#208 = PERSON_AND_ORGANIZATION ( #192, #209 ) ;
#209 = ORGANIZATION ( 'NEURÈENÝ', 'NEURÈENÝ', '' ) ;
#210 = DIRECTION ( 'NONE',  ( 1.000000000000000000, 0.000000000000000000, -0.000000000000000000 ) ) ;
#211 = APPROVAL_ROLE ( '' ) ;
#212 = AXIS2_PLACEMENT_3D ( 'NONE', #62, #204, #141 ) ;
#213 = DIRECTION ( 'NONE',  ( -0.000000000000000000, -0.000000000000000000, -1.000000000000000000 ) ) ;
#214 = DIRECTION ( 'NONE',  ( -0.000000000000000000, -0.000000000000000000, -1.000000000000000000 ) ) ;
#215 = CC_DESIGN_SECURITY_CLASSIFICATION ( #223, ( #243 ) ) ;
#216 = FACE_OUTER_BOUND ( 'NONE', #58, .T. ) ;
#217 = CARTESIAN_POINT ( 'NONE',  ( -3.100000000000000089, 0.000000000000000000, 5.200000000000009948 ) ) ;
#218 = DIRECTION ( 'NONE',  ( 1.000000000000000000, 0.000000000000000000, -0.000000000000000000 ) ) ;
#219 = ORIENTED_EDGE ( 'NONE', *, *, #241, .F. ) ;
#220 = TOROIDAL_SURFACE ( 'NONE', #269, 3.299999999999999822, 0.2000000000000000111 ) ;
#221 = ORIENTED_EDGE ( 'NONE', *, *, #233, .T. ) ;
#222 = CC_DESIGN_PERSON_AND_ORGANIZATION_ASSIGNMENT ( #121, #97, ( #165 ) ) ;
#223 = SECURITY_CLASSIFICATION ( '', '', #140 ) ;
#224 = VERTEX_POINT ( 'NONE', #24 ) ;
#225 = EDGE_LOOP ( 'NONE', ( #158, #177 ) ) ;
#226 = LINE ( 'NONE', #249, #147 ) ;
#227 = APPLICATION_PROTOCOL_DEFINITION ( 'international standard', 'config_control_design', 1994, #246 ) ;
#228 = LINE ( 'NONE', #251, #247 ) ;
#229 = COORDINATED_UNIVERSAL_TIME_OFFSET ( 1, 0, .AHEAD. ) ;
#230 = PLANE ( 'NONE',  #96 ) ;
#231 = PERSON_AND_ORGANIZATION ( #192, #209 ) ;
#232 = CARTESIAN_POINT ( 'NONE',  ( 0.000000000000000000, 0.000000000000000000, 5.000000000000000000 ) ) ;
#233 = EDGE_CURVE ( 'NONE', #267, #133, #124, .T. ) ;
#234 = PLANE ( 'NONE',  #132 ) ;
#235 = CYLINDRICAL_SURFACE ( 'NONE', #18, 6.000000000000000888 ) ;
#236 = CARTESIAN_POINT ( 'NONE',  ( 3.299999999999999822, 0.000000000000000000, 5.000000000000005329 ) ) ;
#237 = CIRCLE ( 'NONE', #301, 3.100000000000000089 ) ;
#238 = DIRECTION ( 'NONE',  ( 1.000000000000000000, 0.000000000000000000, 0.000000000000000000 ) ) ;
#239 = ORIENTED_EDGE ( 'NONE', *, *, #241, .T. ) ;
#240 = VERTEX_POINT ( 'NONE', #303 ) ;
#241 = EDGE_CURVE ( 'NONE', #113, #201, #237, .T. ) ;
#242 = VERTEX_POINT ( 'NONE', #187 ) ;
#243 = PRODUCT_DEFINITION_FORMATION_WITH_SPECIFIED_SOURCE ( 'LIBOVOLNÝ', '', #1, .NOT_KNOWN. ) ;
#244 = AXIS2_PLACEMENT_3D ( 'NONE', #27, #3, #196 ) ;
#245 = ORIENTED_EDGE ( 'NONE', *, *, #116, .F. ) ;
#246 = APPLICATION_CONTEXT ( 'configuration controlled 3d designs of mechanical parts and assemblies' ) ;
#247 = VECTOR ( 'NONE', #40, 1000.000000000000000 ) ;
#248 = VERTEX_POINT ( 'NONE', #76 ) ;
#249 = CARTESIAN_POINT ( 'NONE',  ( -3.100000000000000089, 0.000000000000000000, 165.0000000000000000 ) ) ;
#250 = DIRECTION ( 'NONE',  ( 0.000000000000000000, 0.000000000000000000, 1.000000000000000000 ) ) ;
#251 = CARTESIAN_POINT ( 'NONE',  ( 6.000000000000000888, 7.347880794884120722E-16, 5.000000000000000000 ) ) ;
#252 = CIRCLE ( 'NONE', #128, 3.299999999999999822 ) ;
#253 = UNCERTAINTY_MEASURE_WITH_UNIT (LENGTH_MEASURE( 1.000000000000000082E-05 ), #46, 'distance_accuracy_value', 'NONE');
#254 = DATE_AND_TIME ( #142, #127 ) ;
#255 = DIRECTION ( 'NONE',  ( -1.000000000000000000, 1.224646799147353207E-16, 0.000000000000000000 ) ) ;
#256 = ADVANCED_FACE ( 'NONE', ( #216 ), #20, .T. ) ;
#257 = TOROIDAL_SURFACE ( 'NONE', #294, 3.299999999999999822, 0.2000000000000000111 ) ;
#258 = PRODUCT_DEFINITION_SHAPE ( 'NONE', 'NONE',  #165 ) ;
#259 = DIRECTION ( 'NONE',  ( -1.000000000000000000, 0.000000000000000000, 0.000000000000000000 ) ) ;
#260 = DIRECTION ( 'NONE',  ( -0.000000000000000000, -0.000000000000000000, -1.000000000000000000 ) ) ;
#261 = ADVANCED_BREP_SHAPE_REPRESENTATION ( '9fed', ( #77, #31 ), #289 ) ;
#262 = CARTESIAN_POINT ( 'NONE',  ( 0.000000000000000000, 0.000000000000000000, 5.000000000000000000 ) ) ;
#263 = DIRECTION ( 'NONE',  ( 1.000000000000000000, 0.000000000000000000, 0.000000000000000000 ) ) ;
#264 = CARTESIAN_POINT ( 'NONE',  ( 0.000000000000000000, 0.000000000000000000, 5.000000000000000000 ) ) ;
#265 = CC_DESIGN_PERSON_AND_ORGANIZATION_ASSIGNMENT ( #65, #123, ( #1 ) ) ;
#266 = VERTEX_POINT ( 'NONE', #75 ) ;
#267 = VERTEX_POINT ( 'NONE', #149 ) ;
#268 = ORIENTED_EDGE ( 'NONE', *, *, #108, .F. ) ;
#269 = AXIS2_PLACEMENT_3D ( 'NONE', #283, #174, #284 ) ;
#270 = EDGE_LOOP ( 'NONE', ( #85, #245 ) ) ;
#271 = FACE_OUTER_BOUND ( 'NONE', #30, .T. ) ;
#272 = DIRECTION ( 'NONE',  ( -0.000000000000000000, -0.000000000000000000, -1.000000000000000000 ) ) ;
#273 = APPROVAL_ROLE ( '' ) ;
#274 = CALENDAR_DATE ( 2022, 7, 7 ) ;
#275 = PERSON_AND_ORGANIZATION_ROLE ( 'creator' ) ;
#276 = CARTESIAN_POINT ( 'NONE',  ( 0.000000000000000000, 0.000000000000000000, 5.000000000000000000 ) ) ;
#277 = SHAPE_DEFINITION_REPRESENTATION ( #258, #261 ) ;
#278 = CC_DESIGN_PERSON_AND_ORGANIZATION_ASSIGNMENT ( #68, #168, ( #243 ) ) ;
#279 = AXIS2_PLACEMENT_3D ( 'NONE', #189, #71, #255 ) ;
#280 = DIRECTION ( 'NONE',  ( 0.000000000000000000, 0.000000000000000000, 1.000000000000000000 ) ) ;
#281 = DIRECTION ( 'NONE',  ( 0.000000000000000000, 0.000000000000000000, 1.000000000000000000 ) ) ;
#282 = APPLICATION_CONTEXT ( 'configuration controlled 3d designs of mechanical parts and assemblies' ) ;
#283 = CARTESIAN_POINT ( 'NONE',  ( 0.000000000000000000, 0.000000000000000000, 5.200000000000009948 ) ) ;
#284 = DIRECTION ( 'NONE',  ( 1.000000000000000000, 0.000000000000000000, 0.000000000000000000 ) ) ;
#285 = CIRCLE ( 'NONE', #161, 3.100000000000000089 ) ;
#286 = ORIENTED_EDGE ( 'NONE', *, *, #116, .T. ) ;
#287 = EDGE_CURVE ( 'NONE', #224, #201, #2, .T. ) ;
#288 = EDGE_LOOP ( 'NONE', ( #292, #139, #138, #268 ) ) ;
#289 =( GEOMETRIC_REPRESENTATION_CONTEXT ( 3 ) GLOBAL_UNCERTAINTY_ASSIGNED_CONTEXT ( ( #253 ) ) GLOBAL_UNIT_ASSIGNED_CONTEXT ( ( #46, #102, #44 ) ) REPRESENTATION_CONTEXT ( 'NONE', 'WORKASPACE' ) );
#290 = AXIS2_PLACEMENT_3D ( 'NONE', #130, #78, #263 ) ;
#291 = EDGE_LOOP ( 'NONE', ( #179, #114, #155, #239 ) ) ;
#292 = ORIENTED_EDGE ( 'NONE', *, *, #297, .F. ) ;
#293 = EDGE_CURVE ( 'NONE', #133, #266, #107, .T. ) ;
#294 = AXIS2_PLACEMENT_3D ( 'NONE', #12, #8, #92 ) ;
#295 = DIRECTION ( 'NONE',  ( 1.000000000000000000, 0.000000000000000000, 0.000000000000000000 ) ) ;
#296 = DIRECTION ( 'NONE',  ( 1.000000000000000000, 0.000000000000000000, 0.000000000000000000 ) ) ;
#297 = EDGE_CURVE ( 'NONE', #113, #248, #90, .T. ) ;
#298 = DIRECTION ( 'NONE',  ( 1.000000000000000000, 0.000000000000000000, 0.000000000000000000 ) ) ;
#299 = CARTESIAN_POINT ( 'NONE',  ( 0.000000000000000000, 0.000000000000000000, 0.000000000000000000 ) ) ;
#300 = CC_DESIGN_APPROVAL ( #137, ( #223 ) ) ;
#301 = AXIS2_PLACEMENT_3D ( 'NONE', #98, #280, #47 ) ;
#302 = PERSON_AND_ORGANIZATION ( #192, #209 ) ;
#303 = CARTESIAN_POINT ( 'NONE',  ( 6.000000000000000888, 7.347880794884120722E-16, 5.000000000000000000 ) ) ;
#304 = APPROVAL ( #38, 'NEURÈENÝ' ) ;
#305 = COORDINATED_UNIVERSAL_TIME_OFFSET ( 1, 0, .AHEAD. ) ;
#306 = FACE_OUTER_BOUND ( 'NONE', #157, .T. ) ;
#307 = DIRECTION ( 'NONE',  ( 0.000000000000000000, 0.000000000000000000, 1.000000000000000000 ) ) ;
ENDSEC;
END-ISO-10303-21;
