ISO-10303-21;
HEADER;
FILE_DESCRIPTION (( 'STEP AP203' ),
    '1' );
FILE_NAME ('0bdc.STEP',
    '2022-07-07T10:03:02',
    ( '' ),
    ( '' ),
    'SwSTEP 2.0',
    'SolidWorks 2019',
    '' );
FILE_SCHEMA (( 'CONFIG_CONTROL_DESIGN' ));
ENDSEC;

DATA;
#1 = CC_DESIGN_APPROVAL ( #193, ( #111 ) ) ;
#2 = ORIENTED_EDGE ( 'NONE', *, *, #69, .F. ) ;
#3 = DATE_AND_TIME ( #242, #74 ) ;
#4 = ORIENTED_EDGE ( 'NONE', *, *, #117, .T. ) ;
#5 = PERSON_AND_ORGANIZATION ( #71, #49 ) ;
#6 = UNCERTAINTY_MEASURE_WITH_UNIT (LENGTH_MEASURE( 1.000000000000000082E-05 ), #87, 'distance_accuracy_value', 'NONE');
#7 = CARTESIAN_POINT ( 'NONE',  ( 0.000000000000000000, 0.000000000000000000, 5.000000000000000000 ) ) ;
#8 = COORDINATED_UNIVERSAL_TIME_OFFSET ( 1, 0, .AHEAD. ) ;
#9 = CYLINDRICAL_SURFACE ( 'NONE', #127, 4.000000000000000000 ) ;
#10 = AXIS2_PLACEMENT_3D ( 'NONE', #128, #106, #66 ) ;
#11 = COORDINATED_UNIVERSAL_TIME_OFFSET ( 1, 0, .AHEAD. ) ;
#12 = CARTESIAN_POINT ( 'NONE',  ( 0.000000000000000000, 0.000000000000000000, 5.200000000000009948 ) ) ;
#13 = CARTESIAN_POINT ( 'NONE',  ( 0.000000000000000000, 0.000000000000000000, 5.000000000000000000 ) ) ;
#14 = FACE_OUTER_BOUND ( 'NONE', #284, .T. ) ;
#15 = DIRECTION ( 'NONE',  ( 0.000000000000000000, 0.000000000000000000, 1.000000000000000000 ) ) ;
#16 = PRODUCT ( '0bdc', '0bdc', '', ( #304 ) ) ;
#17 = DIRECTION ( 'NONE',  ( -1.000000000000000000, 0.000000000000000000, 0.000000000000000000 ) ) ;
#18 = APPROVAL_PERSON_ORGANIZATION ( #174, #182, #76 ) ;
#19 = DIRECTION ( 'NONE',  ( 1.000000000000000000, 0.000000000000000000, 0.000000000000000000 ) ) ;
#20 = ORIENTED_EDGE ( 'NONE', *, *, #297, .F. ) ;
#21 = CC_DESIGN_PERSON_AND_ORGANIZATION_ASSIGNMENT ( #217, #219, ( #214 ) ) ;
#22 = APPROVAL ( #192, 'NEURÈENÝ' ) ;
#23 = APPLICATION_CONTEXT ( 'configuration controlled 3d designs of mechanical parts and assemblies' ) ;
#24 = LOCAL_TIME ( 12, 3, 2.000000000000000000, #269 ) ;
#25 = ORIENTED_EDGE ( 'NONE', *, *, #177, .F. ) ;
#26 = CALENDAR_DATE ( 2022, 7, 7 ) ;
#27 = ORIENTED_EDGE ( 'NONE', *, *, #69, .T. ) ;
#28 = AXIS2_PLACEMENT_3D ( 'NONE', #45, #112, #301 ) ;
#29 = DATE_TIME_ROLE ( 'classification_date' ) ;
#30 = ORIENTED_EDGE ( 'NONE', *, *, #203, .T. ) ;
#31 = CARTESIAN_POINT ( 'NONE',  ( -7.000000000000000000, 0.000000000000000000, 5.000000000000000000 ) ) ;
#32 = PERSON_AND_ORGANIZATION_ROLE ( 'design_supplier' ) ;
#33 = DIRECTION ( 'NONE',  ( 0.000000000000000000, 0.000000000000000000, 1.000000000000000000 ) ) ;
#34 = ORIENTED_EDGE ( 'NONE', *, *, #203, .F. ) ;
#35 = AXIS2_PLACEMENT_3D ( 'NONE', #185, #158, #260 ) ;
#36 = DATE_AND_TIME ( #212, #38 ) ;
#37 = DIRECTION ( 'NONE',  ( 0.000000000000000000, 0.000000000000000000, 1.000000000000000000 ) ) ;
#38 = LOCAL_TIME ( 12, 3, 2.000000000000000000, #11 ) ;
#39 = ORIENTED_EDGE ( 'NONE', *, *, #56, .F. ) ;
#40 = DIRECTION ( 'NONE',  ( 0.000000000000000000, 0.000000000000000000, 1.000000000000000000 ) ) ;
#41 = AXIS2_PLACEMENT_3D ( 'NONE', #201, #40, #296 ) ;
#42 = CARTESIAN_POINT ( 'NONE',  ( 0.000000000000000000, 0.000000000000000000, 5.200000000000009948 ) ) ;
#43 = EDGE_CURVE ( 'NONE', #144, #46, #140, .T. ) ;
#44 =( NAMED_UNIT ( * ) PLANE_ANGLE_UNIT ( ) SI_UNIT ( $, .RADIAN. ) );
#45 = CARTESIAN_POINT ( 'NONE',  ( 0.000000000000000000, 0.000000000000000000, 5.200000000000009948 ) ) ;
#46 = VERTEX_POINT ( 'NONE', #83 ) ;
#47 = AXIS2_PLACEMENT_3D ( 'NONE', #63, #175, #226 ) ;
#48 = ADVANCED_FACE ( 'NONE', ( #14 ), #223, .T. ) ;
#49 = ORGANIZATION ( 'NEURÈENÝ', 'NEURÈENÝ', '' ) ;
#50 = ORIENTED_EDGE ( 'NONE', *, *, #78, .F. ) ;
#51 = ORIENTED_EDGE ( 'NONE', *, *, #241, .T. ) ;
#52 = APPROVAL_DATE_TIME ( #221, #182 ) ;
#53 = ORIENTED_EDGE ( 'NONE', *, *, #215, .T. ) ;
#54 = ADVANCED_BREP_SHAPE_REPRESENTATION ( '0bdc', ( #194, #121 ), #264 ) ;
#55 = CIRCLE ( 'NONE', #120, 7.000000000000000000 ) ;
#56 = EDGE_CURVE ( 'NONE', #85, #261, #278, .T. ) ;
#57 = DIRECTION ( 'NONE',  ( -0.000000000000000000, -0.000000000000000000, -1.000000000000000000 ) ) ;
#58 = APPROVAL_PERSON_ORGANIZATION ( #118, #22, #60 ) ;
#59 = FACE_OUTER_BOUND ( 'NONE', #116, .T. ) ;
#60 = APPROVAL_ROLE ( '' ) ;
#61 = CARTESIAN_POINT ( 'NONE',  ( 7.000000000000000000, 8.572527594031473190E-16, 5.000000000000000000 ) ) ;
#62 = SECURITY_CLASSIFICATION_LEVEL ( 'unclassified' ) ;
#63 = CARTESIAN_POINT ( 'NONE',  ( -4.200000000000000178, 5.143516556418882928E-16, 5.200000000000009948 ) ) ;
#64 = AXIS2_PLACEMENT_3D ( 'NONE', #276, #180, #132 ) ;
#65 = DIRECTION ( 'NONE',  ( -0.000000000000000000, -0.000000000000000000, -1.000000000000000000 ) ) ;
#66 = DIRECTION ( 'NONE',  ( 1.000000000000000000, 0.000000000000000000, 0.000000000000000000 ) ) ;
#67 = CARTESIAN_POINT ( 'NONE',  ( -7.000000000000000000, 0.000000000000000000, 5.000000000000000000 ) ) ;
#68 = CYLINDRICAL_SURFACE ( 'NONE', #115, 4.000000000000000000 ) ;
#69 = EDGE_CURVE ( 'NONE', #94, #275, #88, .T. ) ;
#70 = APPLICATION_PROTOCOL_DEFINITION ( 'international standard', 'config_control_design', 1994, #23 ) ;
#71 = PERSON ( 'NEURÈENÝ', 'NEURÈENÝ', 'NEURÈENÝ', ('NEURÈENÝ'), ('NEURÈENÝ'), ('NEURÈENÝ') ) ;
#72 = EDGE_LOOP ( 'NONE', ( #50, #39, #267, #254 ) ) ;
#73 = CC_DESIGN_SECURITY_CLASSIFICATION ( #214, ( #111 ) ) ;
#74 = LOCAL_TIME ( 12, 3, 2.000000000000000000, #172 ) ;
#75 = ORIENTED_EDGE ( 'NONE', *, *, #209, .T. ) ;
#76 = APPROVAL_ROLE ( '' ) ;
#77 = ORIENTED_EDGE ( 'NONE', *, *, #93, .F. ) ;
#78 = EDGE_CURVE ( 'NONE', #261, #144, #181, .T. ) ;
#79 = CC_DESIGN_PERSON_AND_ORGANIZATION_ASSIGNMENT ( #113, #249, ( #16 ) ) ;
#80 = PERSON_AND_ORGANIZATION ( #71, #49 ) ;
#81 = DIRECTION ( 'NONE',  ( 1.000000000000000000, 0.000000000000000000, 0.000000000000000000 ) ) ;
#82 = LINE ( 'NONE', #270, #256 ) ;
#83 = CARTESIAN_POINT ( 'NONE',  ( 4.200000000000000178, 0.000000000000000000, 5.000000000000005329 ) ) ;
#84 = CARTESIAN_POINT ( 'NONE',  ( -7.000000000000000000, 0.000000000000000000, 0.000000000000000000 ) ) ;
#85 = VERTEX_POINT ( 'NONE', #294 ) ;
#86 = FACE_OUTER_BOUND ( 'NONE', #234, .T. ) ;
#87 =( LENGTH_UNIT ( ) NAMED_UNIT ( * ) SI_UNIT ( .MILLI., .METRE. ) );
#88 = CIRCLE ( 'NONE', #237, 7.000000000000000000 ) ;
#89 = FACE_OUTER_BOUND ( 'NONE', #280, .T. ) ;
#90 = CARTESIAN_POINT ( 'NONE',  ( -4.000000000000000000, 0.000000000000000000, 5.200000000000009948 ) ) ;
#91 = ORIENTED_EDGE ( 'NONE', *, *, #56, .T. ) ;
#92 = LOCAL_TIME ( 12, 3, 2.000000000000000000, #168 ) ;
#93 = EDGE_CURVE ( 'NONE', #46, #144, #259, .T. ) ;
#94 = VERTEX_POINT ( 'NONE', #84 ) ;
#95 = AXIS2_PLACEMENT_3D ( 'NONE', #7, #100, #19 ) ;
#96 = ADVANCED_FACE ( 'NONE', ( #86 ), #176, .T. ) ;
#97 = SHAPE_DEFINITION_REPRESENTATION ( #230, #54 ) ;
#98 = ORIENTED_EDGE ( 'NONE', *, *, #177, .T. ) ;
#99 = PERSON_AND_ORGANIZATION ( #71, #49 ) ;
#100 = DIRECTION ( 'NONE',  ( 0.000000000000000000, 0.000000000000000000, 1.000000000000000000 ) ) ;
#101 = CALENDAR_DATE ( 2022, 7, 7 ) ;
#102 = CIRCLE ( 'NONE', #35, 4.000000000000000000 ) ;
#103 = DIRECTION ( 'NONE',  ( 0.000000000000000000, 0.000000000000000000, 1.000000000000000000 ) ) ;
#104 = DIRECTION ( 'NONE',  ( -0.000000000000000000, -0.000000000000000000, -1.000000000000000000 ) ) ;
#105 = FACE_OUTER_BOUND ( 'NONE', #139, .T. ) ;
#106 = DIRECTION ( 'NONE',  ( -0.000000000000000000, -0.000000000000000000, -1.000000000000000000 ) ) ;
#107 = DIRECTION ( 'NONE',  ( 1.000000000000000000, 0.000000000000000000, -0.000000000000000000 ) ) ;
#108 = CC_DESIGN_PERSON_AND_ORGANIZATION_ASSIGNMENT ( #123, #32, ( #111 ) ) ;
#109 = CARTESIAN_POINT ( 'NONE',  ( 7.000000000000000000, 8.572527594031473190E-16, 0.000000000000000000 ) ) ;
#110 = CIRCLE ( 'NONE', #64, 7.000000000000000000 ) ;
#111 = PRODUCT_DEFINITION_FORMATION_WITH_SPECIFIED_SOURCE ( 'LIBOVOLNÝ', '', #16, .NOT_KNOWN. ) ;
#112 = DIRECTION ( 'NONE',  ( 0.000000000000000000, 0.000000000000000000, 1.000000000000000000 ) ) ;
#113 = PERSON_AND_ORGANIZATION ( #71, #49 ) ;
#114 = ORIENTED_EDGE ( 'NONE', *, *, #215, .F. ) ;
#115 = AXIS2_PLACEMENT_3D ( 'NONE', #298, #231, #279 ) ;
#116 = EDGE_LOOP ( 'NONE', ( #20, #303, #77, #159 ) ) ;
#117 = EDGE_CURVE ( 'NONE', #275, #94, #110, .T. ) ;
#118 = PERSON_AND_ORGANIZATION ( #71, #49 ) ;
#119 = ORIENTED_EDGE ( 'NONE', *, *, #186, .F. ) ;
#120 = AXIS2_PLACEMENT_3D ( 'NONE', #13, #225, #199 ) ;
#121 = AXIS2_PLACEMENT_3D ( 'NONE', #232, #138, #160 ) ;
#122 = DIRECTION ( 'NONE',  ( -0.000000000000000000, -0.000000000000000000, -1.000000000000000000 ) ) ;
#123 = PERSON_AND_ORGANIZATION ( #71, #49 ) ;
#124 = CARTESIAN_POINT ( 'NONE',  ( -4.200000000000000178, 5.143516556418882928E-16, 5.000000000000005329 ) ) ;
#125 = PERSON_AND_ORGANIZATION_ROLE ( 'creator' ) ;
#126 = ADVANCED_FACE ( 'NONE', ( #274, #227 ), #151, .T. ) ;
#127 = AXIS2_PLACEMENT_3D ( 'NONE', #196, #218, #244 ) ;
#128 = CARTESIAN_POINT ( 'NONE',  ( 0.000000000000000000, 0.000000000000000000, 5.000000000000000000 ) ) ;
#129 = DATE_TIME_ROLE ( 'creation_date' ) ;
#130 = DIRECTION ( 'NONE',  ( 1.000000000000000000, 0.000000000000000000, -0.000000000000000000 ) ) ;
#131 = DIRECTION ( 'NONE',  ( 1.000000000000000000, 0.000000000000000000, 0.000000000000000000 ) ) ;
#132 = DIRECTION ( 'NONE',  ( 1.000000000000000000, 0.000000000000000000, 0.000000000000000000 ) ) ;
#133 = EDGE_CURVE ( 'NONE', #189, #142, #55, .T. ) ;
#134 = CYLINDRICAL_SURFACE ( 'NONE', #157, 7.000000000000000000 ) ;
#135 = LINE ( 'NONE', #235, #205 ) ;
#136 = DIRECTION ( 'NONE',  ( 1.000000000000000000, 0.000000000000000000, 0.000000000000000000 ) ) ;
#137 = ORIENTED_EDGE ( 'NONE', *, *, #216, .F. ) ;
#138 = DIRECTION ( 'NONE',  ( 0.000000000000000000, 0.000000000000000000, 1.000000000000000000 ) ) ;
#139 = EDGE_LOOP ( 'NONE', ( #2, #265 ) ) ;
#140 = CIRCLE ( 'NONE', #10, 4.200000000000000178 ) ;
#141 = ADVANCED_FACE ( 'NONE', ( #105 ), #293, .F. ) ;
#142 = VERTEX_POINT ( 'NONE', #67 ) ;
#143 = APPROVAL_DATE_TIME ( #239, #193 ) ;
#144 = VERTEX_POINT ( 'NONE', #124 ) ;
#145 = CLOSED_SHELL ( 'NONE', ( #163, #306, #48, #263, #126, #141, #154, #96, #255 ) ) ;
#146 = AXIS2_PLACEMENT_3D ( 'NONE', #42, #258, #136 ) ;
#147 = LINE ( 'NONE', #31, #210 ) ;
#148 = APPROVAL_STATUS ( 'not_yet_approved' ) ;
#149 = DIRECTION ( 'NONE',  ( -0.000000000000000000, -0.000000000000000000, -1.000000000000000000 ) ) ;
#150 = CC_DESIGN_PERSON_AND_ORGANIZATION_ASSIGNMENT ( #5, #125, ( #277 ) ) ;
#151 = PLANE ( 'NONE',  #268 ) ;
#152 = DIRECTION ( 'NONE',  ( 1.000000000000000000, 0.000000000000000000, 0.000000000000000000 ) ) ;
#153 = CARTESIAN_POINT ( 'NONE',  ( 0.000000000000000000, 0.000000000000000000, 255.0000000000000000 ) ) ;
#154 = ADVANCED_FACE ( 'NONE', ( #271 ), #9, .T. ) ;
#155 = DIRECTION ( 'NONE',  ( 0.000000000000000000, 0.000000000000000000, 1.000000000000000000 ) ) ;
#156 = DIRECTION ( 'NONE',  ( 1.000000000000000000, 0.000000000000000000, 0.000000000000000000 ) ) ;
#157 = AXIS2_PLACEMENT_3D ( 'NONE', #302, #183, #17 ) ;
#158 = DIRECTION ( 'NONE',  ( 0.000000000000000000, 0.000000000000000000, 1.000000000000000000 ) ) ;
#159 = ORIENTED_EDGE ( 'NONE', *, *, #290, .F. ) ;
#160 = DIRECTION ( 'NONE',  ( 1.000000000000000000, 0.000000000000000000, 0.000000000000000000 ) ) ;
#161 = CIRCLE ( 'NONE', #95, 7.000000000000000000 ) ;
#162 = ORIENTED_EDGE ( 'NONE', *, *, #133, .F. ) ;
#163 = ADVANCED_FACE ( 'NONE', ( #59 ), #295, .F. ) ;
#164 = CC_DESIGN_DATE_AND_TIME_ASSIGNMENT ( #36, #129, ( #277 ) ) ;
#165 = VECTOR ( 'NONE', #57, 1000.000000000000000 ) ;
#166 = CC_DESIGN_APPROVAL ( #22, ( #277 ) ) ;
#167 = ORIENTED_EDGE ( 'NONE', *, *, #209, .F. ) ;
#168 = COORDINATED_UNIVERSAL_TIME_OFFSET ( 1, 0, .AHEAD. ) ;
#169 = VERTEX_POINT ( 'NONE', #171 ) ;
#170 = PERSON_AND_ORGANIZATION_ROLE ( 'creator' ) ;
#171 = CARTESIAN_POINT ( 'NONE',  ( -4.000000000000000000, 0.000000000000000000, 255.0000000000000000 ) ) ;
#172 = COORDINATED_UNIVERSAL_TIME_OFFSET ( 1, 0, .AHEAD. ) ;
#173 = LINE ( 'NONE', #61, #165 ) ;
#174 = PERSON_AND_ORGANIZATION ( #71, #49 ) ;
#175 = DIRECTION ( 'NONE',  ( 1.224646799147353207E-16, 1.000000000000000000, -0.000000000000000000 ) ) ;
#176 = PLANE ( 'NONE',  #188 ) ;
#177 = EDGE_CURVE ( 'NONE', #240, #85, #82, .T. ) ;
#178 = DIRECTION ( 'NONE',  ( 0.000000000000000000, 0.000000000000000000, 1.000000000000000000 ) ) ;
#179 = CIRCLE ( 'NONE', #146, 4.000000000000000000 ) ;
#180 = DIRECTION ( 'NONE',  ( 0.000000000000000000, 0.000000000000000000, 1.000000000000000000 ) ) ;
#181 = CIRCLE ( 'NONE', #47, 0.1999999999999996503 ) ;
#182 = APPROVAL ( #224, 'NEURÈENÝ' ) ;
#183 = DIRECTION ( 'NONE',  ( -0.000000000000000000, -0.000000000000000000, -1.000000000000000000 ) ) ;
#184 = CARTESIAN_POINT ( 'NONE',  ( 4.000000000000000000, 4.898587196589412829E-16, 255.0000000000000000 ) ) ;
#185 = CARTESIAN_POINT ( 'NONE',  ( 0.000000000000000000, 0.000000000000000000, 255.0000000000000000 ) ) ;
#186 = EDGE_CURVE ( 'NONE', #240, #169, #228, .T. ) ;
#187 = CARTESIAN_POINT ( 'NONE',  ( 4.200000000000000178, 0.000000000000000000, 5.200000000000009948 ) ) ;
#188 = AXIS2_PLACEMENT_3D ( 'NONE', #153, #37, #130 ) ;
#189 = VERTEX_POINT ( 'NONE', #291 ) ;
#190 = EDGE_LOOP ( 'NONE', ( #243, #200 ) ) ;
#191 = ORIENTED_EDGE ( 'NONE', *, *, #297, .T. ) ;
#192 = APPROVAL_STATUS ( 'not_yet_approved' ) ;
#193 = APPROVAL ( #148, 'NEURÈENÝ' ) ;
#194 = MANIFOLD_SOLID_BREP ( 'Zaoblit1', #145 ) ;
#195 = CC_DESIGN_DATE_AND_TIME_ASSIGNMENT ( #3, #29, ( #214 ) ) ;
#196 = CARTESIAN_POINT ( 'NONE',  ( 0.000000000000000000, 0.000000000000000000, 255.0000000000000000 ) ) ;
#197 = DIRECTION ( 'NONE',  ( 1.000000000000000000, 0.000000000000000000, 0.000000000000000000 ) ) ;
#198 = DIRECTION ( 'NONE',  ( -1.000000000000000000, 0.000000000000000000, 0.000000000000000000 ) ) ;
#199 = DIRECTION ( 'NONE',  ( 1.000000000000000000, 0.000000000000000000, 0.000000000000000000 ) ) ;
#200 = ORIENTED_EDGE ( 'NONE', *, *, #43, .T. ) ;
#201 = CARTESIAN_POINT ( 'NONE',  ( 0.000000000000000000, 0.000000000000000000, 0.000000000000000000 ) ) ;
#202 = CIRCLE ( 'NONE', #236, 0.1999999999999996503 ) ;
#203 = EDGE_CURVE ( 'NONE', #189, #275, #173, .T. ) ;
#204 = DIRECTION ( 'NONE',  ( 0.000000000000000000, 0.000000000000000000, -1.000000000000000000 ) ) ;
#205 = VECTOR ( 'NONE', #206, 1000.000000000000000 ) ;
#206 = DIRECTION ( 'NONE',  ( -0.000000000000000000, -0.000000000000000000, -1.000000000000000000 ) ) ;
#207 = APPROVAL_PERSON_ORGANIZATION ( #99, #193, #286 ) ;
#208 = FACE_OUTER_BOUND ( 'NONE', #305, .T. ) ;
#209 = EDGE_CURVE ( 'NONE', #142, #94, #147, .T. ) ;
#210 = VECTOR ( 'NONE', #122, 1000.000000000000000 ) ;
#211 = EDGE_LOOP ( 'NONE', ( #25, #137, #51, #191 ) ) ;
#212 = CALENDAR_DATE ( 2022, 7, 7 ) ;
#213 = ORIENTED_EDGE ( 'NONE', *, *, #241, .F. ) ;
#214 = SECURITY_CLASSIFICATION ( '', '', #62 ) ;
#215 = EDGE_CURVE ( 'NONE', #142, #189, #161, .T. ) ;
#216 = EDGE_CURVE ( 'NONE', #169, #240, #102, .T. ) ;
#217 = PERSON_AND_ORGANIZATION ( #71, #49 ) ;
#218 = DIRECTION ( 'NONE',  ( -0.000000000000000000, -0.000000000000000000, -1.000000000000000000 ) ) ;
#219 = PERSON_AND_ORGANIZATION_ROLE ( 'classification_officer' ) ;
#220 = CARTESIAN_POINT ( 'NONE',  ( 0.000000000000000000, 0.000000000000000000, 5.200000000000009948 ) ) ;
#221 = DATE_AND_TIME ( #101, #24 ) ;
#222 = AXIS2_PLACEMENT_3D ( 'NONE', #12, #178, #152 ) ;
#223 = CYLINDRICAL_SURFACE ( 'NONE', #250, 7.000000000000000000 ) ;
#224 = APPROVAL_STATUS ( 'not_yet_approved' ) ;
#225 = DIRECTION ( 'NONE',  ( 0.000000000000000000, 0.000000000000000000, 1.000000000000000000 ) ) ;
#226 = DIRECTION ( 'NONE',  ( -1.000000000000000000, 1.224646799147353454E-16, 0.000000000000000000 ) ) ;
#227 = FACE_OUTER_BOUND ( 'NONE', #273, .T. ) ;
#228 = CIRCLE ( 'NONE', #307, 4.000000000000000000 ) ;
#229 = CC_DESIGN_APPROVAL ( #182, ( #214 ) ) ;
#230 = PRODUCT_DEFINITION_SHAPE ( 'NONE', 'NONE',  #277 ) ;
#231 = DIRECTION ( 'NONE',  ( -0.000000000000000000, -0.000000000000000000, -1.000000000000000000 ) ) ;
#232 = CARTESIAN_POINT ( 'NONE',  ( 0.000000000000000000, 0.000000000000000000, 0.000000000000000000 ) ) ;
#233 = ORIENTED_EDGE ( 'NONE', *, *, #216, .T. ) ;
#234 = EDGE_LOOP ( 'NONE', ( #233, #287 ) ) ;
#235 = CARTESIAN_POINT ( 'NONE',  ( -4.000000000000000000, 0.000000000000000000, 255.0000000000000000 ) ) ;
#236 = AXIS2_PLACEMENT_3D ( 'NONE', #187, #281, #204 ) ;
#237 = AXIS2_PLACEMENT_3D ( 'NONE', #292, #155, #131 ) ;
#238 = PRODUCT_RELATED_PRODUCT_CATEGORY ( 'detail', '', ( #16 ) ) ;
#239 = DATE_AND_TIME ( #26, #92 ) ;
#240 = VERTEX_POINT ( 'NONE', #184 ) ;
#241 = EDGE_CURVE ( 'NONE', #169, #261, #135, .T. ) ;
#242 = CALENDAR_DATE ( 2022, 7, 7 ) ;
#243 = ORIENTED_EDGE ( 'NONE', *, *, #93, .T. ) ;
#244 = DIRECTION ( 'NONE',  ( -1.000000000000000000, 0.000000000000000000, 0.000000000000000000 ) ) ;
#245 = DATE_AND_TIME ( #272, #300 ) ;
#246 = CARTESIAN_POINT ( 'NONE',  ( 0.000000000000000000, 0.000000000000000000, 255.0000000000000000 ) ) ;
#247 = DESIGN_CONTEXT ( 'detailed design', #285, 'design' ) ;
#248 = CARTESIAN_POINT ( 'NONE',  ( 0.000000000000000000, 0.000000000000000000, 5.000000000000000000 ) ) ;
#249 = PERSON_AND_ORGANIZATION_ROLE ( 'design_owner' ) ;
#250 = AXIS2_PLACEMENT_3D ( 'NONE', #248, #104, #198 ) ;
#251 = CARTESIAN_POINT ( 'NONE',  ( 0.000000000000000000, 0.000000000000000000, 5.000000000000000000 ) ) ;
#252 = ORIENTED_EDGE ( 'NONE', *, *, #133, .T. ) ;
#253 = CARTESIAN_POINT ( 'NONE',  ( 0.000000000000000000, 0.000000000000000000, 5.000000000000000000 ) ) ;
#254 = ORIENTED_EDGE ( 'NONE', *, *, #43, .F. ) ;
#255 = ADVANCED_FACE ( 'NONE', ( #257 ), #282, .F. ) ;
#256 = VECTOR ( 'NONE', #149, 1000.000000000000000 ) ;
#257 = FACE_OUTER_BOUND ( 'NONE', #72, .T. ) ;
#258 = DIRECTION ( 'NONE',  ( 0.000000000000000000, 0.000000000000000000, 1.000000000000000000 ) ) ;
#259 = CIRCLE ( 'NONE', #289, 4.200000000000000178 ) ;
#260 = DIRECTION ( 'NONE',  ( 1.000000000000000000, 0.000000000000000000, 0.000000000000000000 ) ) ;
#261 = VERTEX_POINT ( 'NONE', #90 ) ;
#262 =( NAMED_UNIT ( * ) SI_UNIT ( $, .STERADIAN. ) SOLID_ANGLE_UNIT ( ) );
#263 = ADVANCED_FACE ( 'NONE', ( #208 ), #134, .T. ) ;
#264 =( GEOMETRIC_REPRESENTATION_CONTEXT ( 3 ) GLOBAL_UNCERTAINTY_ASSIGNED_CONTEXT ( ( #6 ) ) GLOBAL_UNIT_ASSIGNED_CONTEXT ( ( #87, #44, #262 ) ) REPRESENTATION_CONTEXT ( 'NONE', 'WORKASPACE' ) );
#265 = ORIENTED_EDGE ( 'NONE', *, *, #117, .F. ) ;
#266 = APPLICATION_PROTOCOL_DEFINITION ( 'international standard', 'config_control_design', 1994, #285 ) ;
#267 = ORIENTED_EDGE ( 'NONE', *, *, #290, .T. ) ;
#268 = AXIS2_PLACEMENT_3D ( 'NONE', #253, #15, #107 ) ;
#269 = COORDINATED_UNIVERSAL_TIME_OFFSET ( 1, 0, .AHEAD. ) ;
#270 = CARTESIAN_POINT ( 'NONE',  ( 4.000000000000000000, 4.898587196589412829E-16, 255.0000000000000000 ) ) ;
#271 = FACE_OUTER_BOUND ( 'NONE', #211, .T. ) ;
#272 = CALENDAR_DATE ( 2022, 7, 7 ) ;
#273 = EDGE_LOOP ( 'NONE', ( #53, #252 ) ) ;
#274 = FACE_BOUND ( 'NONE', #190, .T. ) ;
#275 = VERTEX_POINT ( 'NONE', #109 ) ;
#276 = CARTESIAN_POINT ( 'NONE',  ( 0.000000000000000000, 0.000000000000000000, 0.000000000000000000 ) ) ;
#277 = PRODUCT_DEFINITION ( 'NEZNÁMÝ', '', #111, #247 ) ;
#278 = CIRCLE ( 'NONE', #222, 4.000000000000000000 ) ;
#279 = DIRECTION ( 'NONE',  ( -1.000000000000000000, 0.000000000000000000, 0.000000000000000000 ) ) ;
#280 = EDGE_LOOP ( 'NONE', ( #119, #98, #91, #213 ) ) ;
#281 = DIRECTION ( 'NONE',  ( 0.000000000000000000, -1.000000000000000000, 0.000000000000000000 ) ) ;
#282 = TOROIDAL_SURFACE ( 'NONE', #28, 4.200000000000000178, 0.2000000000000000111 ) ;
#283 = CC_DESIGN_PERSON_AND_ORGANIZATION_ASSIGNMENT ( #80, #170, ( #111 ) ) ;
#284 = EDGE_LOOP ( 'NONE', ( #162, #30, #4, #167 ) ) ;
#285 = APPLICATION_CONTEXT ( 'configuration controlled 3d designs of mechanical parts and assemblies' ) ;
#286 = APPROVAL_ROLE ( '' ) ;
#287 = ORIENTED_EDGE ( 'NONE', *, *, #186, .T. ) ;
#288 = APPROVAL_DATE_TIME ( #245, #22 ) ;
#289 = AXIS2_PLACEMENT_3D ( 'NONE', #251, #65, #156 ) ;
#290 = EDGE_CURVE ( 'NONE', #85, #46, #202, .T. ) ;
#291 = CARTESIAN_POINT ( 'NONE',  ( 7.000000000000000000, 8.572527594031473190E-16, 5.000000000000000000 ) ) ;
#292 = CARTESIAN_POINT ( 'NONE',  ( 0.000000000000000000, 0.000000000000000000, 0.000000000000000000 ) ) ;
#293 = PLANE ( 'NONE',  #41 ) ;
#294 = CARTESIAN_POINT ( 'NONE',  ( 4.000000000000000000, 4.898587196589412829E-16, 5.200000000000009948 ) ) ;
#295 = TOROIDAL_SURFACE ( 'NONE', #299, 4.200000000000000178, 0.2000000000000000111 ) ;
#296 = DIRECTION ( 'NONE',  ( 1.000000000000000000, 0.000000000000000000, -0.000000000000000000 ) ) ;
#297 = EDGE_CURVE ( 'NONE', #261, #85, #179, .T. ) ;
#298 = CARTESIAN_POINT ( 'NONE',  ( 0.000000000000000000, 0.000000000000000000, 255.0000000000000000 ) ) ;
#299 = AXIS2_PLACEMENT_3D ( 'NONE', #220, #103, #81 ) ;
#300 = LOCAL_TIME ( 12, 3, 2.000000000000000000, #8 ) ;
#301 = DIRECTION ( 'NONE',  ( 1.000000000000000000, 0.000000000000000000, 0.000000000000000000 ) ) ;
#302 = CARTESIAN_POINT ( 'NONE',  ( 0.000000000000000000, 0.000000000000000000, 5.000000000000000000 ) ) ;
#303 = ORIENTED_EDGE ( 'NONE', *, *, #78, .T. ) ;
#304 = MECHANICAL_CONTEXT ( 'NONE', #23, 'mechanical' ) ;
#305 = EDGE_LOOP ( 'NONE', ( #34, #114, #75, #27 ) ) ;
#306 = ADVANCED_FACE ( 'NONE', ( #89 ), #68, .T. ) ;
#307 = AXIS2_PLACEMENT_3D ( 'NONE', #246, #33, #197 ) ;
ENDSEC;
END-ISO-10303-21;
